Guitar Tabs
song title    band name

Join Us Today!

Don't strum alone...
be a part of the largest online Christian music community. Browse thousands of guitar tabs and chat w/ musicians like yourself.


It's Free!

P.O.D. - Bullet the Blue Sky

This tab has not yet been rated for accuracy.Sorry, but you must be logged in to rate this tab.
Click here to log-in, or you can click here to register.
(Registration is free)

All songs owned by corresponding publishing company. If you make copies of any song on this website, be sure to report your usage to CCLI.
Song: Bullet the Blue Sky
Artist: Payable on Death (P.O.D.)
Album: The Fundamental Elements of Southtown
Tabbed by: kalebg. ssshelton025@juno.com - www.abidingfire.cjb.net

Dropped D tuning

Intro: (Note: Don't let the Am that you slide down to from the Dm ring.)
Just let feedback pour out of your amp. Then:
E-x-x-x-x-----------
B-x-x-x-x-6~--6/1-
G-x-x-x-x-7~--7/2-
D-x-x-x-x-7~--7/2-
A-x-x-x-x-5~--5/0-
D-x-x-x-x-0~-------

Dm (05776x)
/ = slide

Verse 1: Just let this ring while feedback pours out of your amp. (The D in
the parentheses can be played instead of the D on the A string.)
E-----
B-----
G-----
D-(0)-
A--5-
D--0~

Chorus:
E----------------------------
B-3-3/5-5-5/6-6-1-1-1/3-

Verse 2: On this verse, it sound like Marcos is playing this:
E-------------------------------
B-------------------------------
G-------------------------------
D-------------------------------
A-5-5-5--5-5-5-5--5-5-3-3-
D-0-0-0--0-0-0-0--0-0-0-0-

(Chorus)
(Intro again)
(Verse 1 guitar)

Solo: sb = slight bend, b = bend
E-10----10---10----10-----------------------------------------------------------------
B---10----10---10----10---------------------------------------------------------------
G-----10---10----10----10-10/12-12-12-12-12-12-12sb-12b-10/12-12-12-12-12-12-12sb-12b-

E-10----10----10----10--------------------------------------------------------------------
B---10----10----10----10------------------------------------------------------------------
G-----10---10-----10----10-10/12-12-12-12-12-12-12sb-12b-10h12-10h12-10h12-10h12-10h12-

E--------------------8~-7-7~-5-5~-1-1~-8~-7-7~5-5~-11h13-11h13-11h13-11h13-11h13
B-------------------------------------------------------------------------------
G-10h12-10h12-10h12-------------------------------------------------------------

E-11h13-11h13-11h13-14b----------
B--------------------------------
G--------------------------------

(Chorus)

The hit a D5 (000xxx) and let it fade out while Sonny does Bono's talk.

godbless.

Comments about this tab

No comments/corrections found. Add your own

Complimentary Christian Ringtones
Dadamobile and CGR have teamed up to bring your favorite Christian artists right to your phone. Sign up today and get 10 complementary ringtones!
Tab Country
Did you know CGR has a sister site w/ country guitar tabs? Well we do! Its called Tab Country. It has a great archive with a lot of country tabs.
Rockin Tabs
Are you looking for a site that has rock guitar tabs? Then Rockintabs.com is the place for you. It is a budding site with many rock guitar tabs. Submit your tab today.
Tab Gallery
Tab Gallery has a compilation of christian, rock, and country tabs all in one place. Come visit us.