Guitar Tabs
song title    band name

Join Us Today!

Don't strum alone...
be a part of the largest online Christian music community. Browse thousands of guitar tabs and chat w/ musicians like yourself.


It's Free!

Plus One - Written On My Heart

This tab has been rated a 4.00 out of 5 for accuracy. (1 vote)Sorry, but you must be logged in to rate this tab.
Click here to log-in, or you can click here to register.
(Registration is free)

All songs owned by corresponding publishing company. If you make copies of any song on this website, be sure to report your usage to CCLI.
****************************************
“Written on My Heart”
by Plus One
from “The Promise”
c: 2000 efwmusic inc.
Tabbed by Matt James (dblklick@aol.com)
****************************************

This song is a little tricky because of all the key changes.  To make it
easier, I’m including two copies of the song in this file; one with a capo
and one without.  Without a capo sounds best to me, but then you have to
bar a lot and if you’re not up to that go with the capoed (“capoed”, is that
a word?  did I just invent a new word?  am I a genius or what? ;-) version.

INTRO:
C - G - Am - F (sounds best if barred, see bottom of tab)

VERSE:
Cm G
Cm G  Fm
Eb G G7
Cm G
Cm G Fm
Eb G G7


CHORUS:  
C G Am
F C Am F G
C G Am
F  /  Fm  C G        (N.C.)


VERSE 2:
Cm G
Cm G  Fm
Eb G G7
Cm G
Cm G Fm
Eb G G7


	REPEAT CHORUS - 


BRIDGE:
Fm Eb Abm Eb
Fm Eb Abm Bb


CHORUS: (key change to Eb, then back to C)
Eb Bb Cm
Ab Eb Cm Ab Bb
C G Am
F C 
G
C G
C G C


CHORDS:						         INTRO CHORDS:
e:--0---3---0---x---3---3---1---6---3---4---6---4---6---|---8----10----5----8--|
B:--1---3---1---1---4---3---1---6---3---4---6---4---6---|---8----10----5----8--|
G:--0---0---2---2---5---4---1---8---4---4---7---5---7---|---9----12----5----10-|
D:--2---0---2---3---5---5---3---8---3---6---8---6---8---|--10----12----7----10-|
A:--3---2---0---3---3---5---3---6---5---6---8---6---8---|--10----10----7----8--|
E:--x---3---x---x---x---3---1---x---3---4---6---4---6---|---8-----x----5----x--|
    C   G   Am  F   Cm  G   Fm  Eb  G7  Abm Eb  Ab  Bb      C     G    Am   F

* * * The little fill that comes in on the intro and throughout the song
goes something like this: F - G - Bb - C (notes only, not full chords)
This isn’t exact, but that’s the best I could get it.

-------------------------------------------------------------
****************************************
“Written on My Heart” (capo version)
by Plus One
from “The Promise”
c: 2000 efwmusic inc.
Tabbed by Matt James (dblklick@aol.com)
****************************************

Capo @ 3

INTRO:
A - E - F#m - D (sounds best if barred, see bottom of tab)

VERSE:
Am E
Am E Dm
C E E7
Am E
Am E Dm
C E E7


CHORUS:  
A E F#m
D A F#m D E
A E F#m
D  /  Dm A E  


VERSE 2:
Am E
Am E Dm
C E E7
Am E
Am E Dm
C E E7


	REPEAT CHORUS - 


BRIDGE:
Dm C Fm C
Dm C Fm G


CHORUS: (key change)
C G Am
F C  Am F G
A E F#m
D A 
E
A E
A E A



CHORDS:	(relative to capo)  			     INTRO CHORDS:
e:--0---0---0----2---0---0---1---3---0---1---1---4---|---5---7----2----5--|
B:--2---0---0----3---1---3---3---3---0---1---1---4---|---5---7----2----5--|
G:--2---1---2----2---2---0---2---0---1---2---1---5---|---6---9----2----7--|
D:--2---2---4----0---2---2---0---0---0---3---3---6---|---7---9----4----7--|
A:--0---2---4----x---0---3---x---2---2---3---3---6---|---7---7----4----5--|
E:--x---0---x----x---x---x---x---3---0---1---1---4---|---5---x----2----x--|
    A   E   F#m  D   Am  C   Dm  G   E7  F   Fm  Bb      A   E    F#m  D

Comments about this tab

No comments/corrections found. Add your own

Complimentary Christian Ringtones
Dadamobile and CGR have teamed up to bring your favorite Christian artists right to your phone. Sign up today and get 10 complementary ringtones!
Tab Country
Did you know CGR has a sister site w/ country guitar tabs? Well we do! Its called Tab Country. It has a great archive with a lot of country tabs.
Rockin Tabs
Are you looking for a site that has rock guitar tabs? Then Rockintabs.com is the place for you. It is a budding site with many rock guitar tabs. Submit your tab today.
Tab Gallery
Tab Gallery has a compilation of christian, rock, and country tabs all in one place. Come visit us.