Guitar Tabs
song title    band name

Join Us Today!

Don't strum alone...
be a part of the largest online Christian music community. Browse thousands of guitar tabs and chat w/ musicians like yourself.


It's Free!

This tab has not yet been rated for accuracy.Sorry, but you must be logged in to rate this tab.
Click here to log-in, or you can click here to register.
(Registration is free)

All songs owned by corresponding publishing company. If you make copies of any song on this website, be sure to report your usage to CCLI.
Title: Struck by the Chord
Artist: Plankeye
From the CD: Commonwealth
Tabbed by: Roy Meyer
Email: Cheese-n-Rice@juno.com
Update by: Ken Bonner
Re:mail: bonner@iserv.net


Intro:
E-D-C-D  E-D-C-D

Verse:
(E  D  C  D) x9
(A  G  D  E) x2
(E  D  C  D) x8
(A  B  D  E) x3
(2x)

(cut guitar)

(Drum solo lyrics:) 


And on the word fire it starts this:

e-----------------------------------------------------------------------
B-----------------------------------------------------------------------
G-----9-------7-------5---------7---------------------------------------
D---9-------7-------5---5-----7---7-------------------------------------
A-7-------5-------3---------5-------------------------------------------
E-----------------------------------------------------------------------

This is just picking the notes of E-D-C-D on strings A,D,G for the first two
and A,D,G,D strings for the last two.
 
(E  D  C  D) x4
(E  A  B  D) x3
(E  D  C  D) x4

(E  A  B  D) x4

 
Then for the end part just keep playing E-D-C-D. There is also some 
kind of solo going on behind that but I haven't figured it out. If I 
do I will post it too. I hope this is accurate because it's the first
one I've ever put on the net. If you have questions comments or 
corrections, my email address is at the top of the page but I'll give it again:
Cheese-n-Rice@juno.com. And if you figure out the solo PLEASE tell me how it goes.

Oh almost forgot....The chords:

      E      D      C       A       B
e------------------------------------------
B------------------------------------------
G-----9------7------5----------------------
D-----9------7------5-------7-------9------
A-----7------5------3-------7-------9------
E---------------------------5-------7------


***Instead of the previous one...valient effort though, use this
pattern instead of E A B D.
     E     F#    G     A
e------------------------------------------
B------------------------------------------
G------------------------------------------
D----2-----4-----3-----5-------------------
A----2-----4-----5-----7-------------------
E----0-----2-----5-----7-------------------

*And the solo goes much like this...

e----3-2-0------------2-3-2---
B----------3--------3-------3-
G------------2-44-2-----------
D-----------------------------
A-----------------------------
E-----------------------------

Repeat 

e----3-2-0--------------------
B----------3-----3-----3------
G------------2-4---2-4--------
D-----------------------------
A-----------------------------
E-----------------------------

Hope you'll enjoy playing this killer song by Plankeye. Au Revoir!
-Ken Bonner

Comments about this tab

No comments/corrections found. Add your own

Complimentary Christian Ringtones
Dadamobile and CGR have teamed up to bring your favorite Christian artists right to your phone. Sign up today and get 10 complementary ringtones!
Tab Country
Did you know CGR has a sister site w/ country guitar tabs? Well we do! Its called Tab Country. It has a great archive with a lot of country tabs.
Rockin Tabs
Are you looking for a site that has rock guitar tabs? Then Rockintabs.com is the place for you. It is a budding site with many rock guitar tabs. Submit your tab today.
Tab Gallery
Tab Gallery has a compilation of christian, rock, and country tabs all in one place. Come visit us.