Guitar Tabs
song title    band name

Join Us Today!

Don't strum alone...
be a part of the largest online Christian music community. Browse thousands of guitar tabs and chat w/ musicians like yourself.


It's Free!

This tab has not yet been rated for accuracy.Sorry, but you must be logged in to rate this tab.
Click here to log-in, or you can click here to register.
(Registration is free)

All songs owned by corresponding publishing company. If you make copies of any song on this website, be sure to report your usage to CCLI.
Plankeye: The One and Only
Copyright 1997 Tooth & Nail Records
Tabbed by Collin Derrick
E-mail: ejd@china2.ygi.edu.cn
[Sterling]

Tuning: Standard E
the intro is really nice
Intro:
     A   Bm  E   D       A   Bm  E   D
E|---0-0-2-2-0-0-2-2-|---0-0-2-2-0-0-2-2-|
B|---3-3-3-3-0-0-3-3-|---3-3-3-3-0-0-3-3-|
G|---3-3-4-4-1-1-2-2-|---3-3-4-4-1-1-2-2-|
D|---3-3-4-4-2-2-0-0-|---3-3-4-4-2-2-0-0-|
A|---0-0-2-2-2-2-X-X-|---0-0-2-2-2-2-X-X-|
E|---X-X-2-2-0-0-X-X-|---X-X-2-2-0-0-X-X-|

Chorus: played mostly with bass but with a little electric ($=11th fret)
D|---7-7-7-7-9-9-9-9-6-6-6-6-7-7-7-7-|----|-7-7-7-7-7-7-7-7-7-$-$-$-$-$-$-$-|
A|---5-5-5-5-7-7-7-7-4-4-4-4-5-5-5-5-|-3x-|-5-5-5-5-5-5-5-5-9-9-9-9-9-9-9-9-|
E|-----------------------------------|----|---------------------------------|


Guitar Thingy:
A|---0-0-5p4-0-------0-4h5-4-0-----------5-5-5-5-4-4-2-2-|-2x-|
E|-------------2-2-2-----------0-0-0-0-0-----------------|----|

Verse: palm muted
D|---------------------------7-7-7-7-|----|
A|---7-7-7-7-4-4-4-4-2-2-2-2-5-5-5-5-|-4x-|
E|---5-5-5-5-2-2-2-2-0-0-0-0---------|----|


Chorus: played mostly with bass but with a little electric ($=11th fret)
D|---7-7-7-7-9-9-9-9-6-6-6-6-7-7-7-7-|----|-7-7-7-7-7-7-7-7-7-$-$-$-$-$-$-$-|
A|---5-5-5-5-7-7-7-7-4-4-4-4-5-5-5-5-|-3x-|-5-5-5-5-5-5-5-5-9-9-9-9-9-9-9-9-|
E|-----------------------------------|----|---------------------------------|


Guitar Thingy:
A|---0-0-5p4-0-------0-4h5-4-0-----------5-5-5-5-4-4-2-2-|-2x-|
E|-------------2-2-2-----------0-0-0-0-0-----------------|----|

Bridge:
D|---$-$-$-$-$-$-$-9-7-7-7-7-7-7-7-7---------------7-9-9-9-9-9-9-9-9-|----|
A|---9-9-9-9-9-9-9-7-5-5-5-5-5-5-5-5-7-7-7-7-7-7-7-5-7-7-7-7-7-7-7-7-|-2x-|
E|-----------------------------------5-5-5-5-5-5-5-------------------|----|

then the bass plays a funky verse [Verse]
then a chorus fade out            [Chorus]

Copyright 1997 We Own Your Songs Publishing (SESAC)/ Stonewall Tozer
Publishing (SESAC)

Comments about this tab

No comments/corrections found. Add your own

Complimentary Christian Ringtones
Dadamobile and CGR have teamed up to bring your favorite Christian artists right to your phone. Sign up today and get 10 complementary ringtones!
Tab Country
Did you know CGR has a sister site w/ country guitar tabs? Well we do! Its called Tab Country. It has a great archive with a lot of country tabs.
Rockin Tabs
Are you looking for a site that has rock guitar tabs? Then Rockintabs.com is the place for you. It is a budding site with many rock guitar tabs. Submit your tab today.
Tab Gallery
Tab Gallery has a compilation of christian, rock, and country tabs all in one place. Come visit us.