Guitar Tabs
song title    band name

Join Us Today!

Don't strum alone...
be a part of the largest online Christian music community. Browse thousands of guitar tabs and chat w/ musicians like yourself.


It's Free!

Plankeye - Open House

This tab has been rated a 4.00 out of 5 for accuracy. (1 vote)Sorry, but you must be logged in to rate this tab.
Click here to log-in, or you can click here to register.
(Registration is free)

All songs owned by corresponding publishing company. If you make copies of any song on this website, be sure to report your usage to CCLI.
Song: "Open House"
Artist: Plankeye
From the CD: The Spark
Words by: Luis & Scott
Music by: Plankeye
(c) 1995 Tooth & Nail Records All Songs Thirsty Moon River 
                 Publishing (ASCAP)
Tabbed by: Steve Smith 
Here we go..Enjoy Plankeye Junkies :
Intro: (4x)
G-11----7---------9--
D-11----7----7----9--
A-9-----5----7----7--
E------------5-------
  F#m   D    A    E
Verse 1: 
Same as Intro, but palm muted (4x)
Then same as intro, but open (2x)
Then hold a B: (4 counts)
D--9--
A--9--
E--7--
And head into the bridge part: (4x)
G--7-----11-----9---
D--7-----11-----9---
A--5-----9------7---
E-------------------
   D     F#m    E

Play the intro again (4x)
Verse 2:
Same as intro, but clean (4x)
Then, kick in distortion, and play the intro part (2x)
Hold the B (4 counts)
Play the Bridge part (4x)
Then, play the Bridge part with a stop after each chord. Listen to
the cd for what it should sound like.
Then the rythm guitar plays the bridge part, while the lead plays 
the solo:
e------------------------------------------------------------
b------------------------------------------------17----------
G------------------------------------16----14-14----16----14-
D---------------------------------------16-------------16----
A--9-9/12-12-14-12-14-12--9/12-12-14-------------------------
E------------------------------------------------------------
  
e------------------------------
b----------------17------------
G-16p14-16p14-14----16p14------
D-------------------------14/0*
A------------------------------
E------------------------------
 / = slide
 p = pull
 * = after sliding down, pluck the D string while pulling your 
     hand away from it..it makes it sound like the real thing..
     Listen to the CD for it..
Then play the Bridge part  (4x)
And end with a strum of each chord in the bridge part..(2x)
Enjoy..if you think this is wrong..unless the solo is off a note 
or two..well then you're wrong :P..I've been playing this song 
for my church for a year now..Still love it!

Comments about this tab

No comments/corrections found. Add your own

Complimentary Christian Ringtones
Dadamobile and CGR have teamed up to bring your favorite Christian artists right to your phone. Sign up today and get 10 complementary ringtones!
Tab Country
Did you know CGR has a sister site w/ country guitar tabs? Well we do! Its called Tab Country. It has a great archive with a lot of country tabs.
Rockin Tabs
Are you looking for a site that has rock guitar tabs? Then Rockintabs.com is the place for you. It is a budding site with many rock guitar tabs. Submit your tab today.
Tab Gallery
Tab Gallery has a compilation of christian, rock, and country tabs all in one place. Come visit us.