Guitar Tabs
song title    band name

Join Us Today!

Don't strum alone...
be a part of the largest online Christian music community. Browse thousands of guitar tabs and chat w/ musicians like yourself.


It's Free!

This tab has not yet been rated for accuracy.Sorry, but you must be logged in to rate this tab.
Click here to log-in, or you can click here to register.
(Registration is free)

All songs owned by corresponding publishing company. If you make copies of any song on this website, be sure to report your usage to CCLI.
All the King's Horses
as performed by PlankEye
from the "Never Say Dinosaur" CD
Copyright 1987 Dawn Treader Music (SESAC)
Original words & music by Bob Hartman
Produced by Gene Eugene with Plank Eye
tabbed by Dean
E-mail= dometexp@aol.com


Intro:
   Dm       C                       C2  
E|---------------------------------------------------
B|-------3-----------1-----------1-----3-----3-------
G|----2-----0-----0-----0-----0-----0-----0-----0----
D|-0-----------2-----------2-------------------------    X 2
A|-------------3-----------3-------------------------
E|---------------------------------------------------


Verse 1: Chords are the same: Dm  C  C2

Chorus:
(G  C) x4

Bridge:
                     X 3 
E|--------------------||-----------------------
B|--------------------||----------------5h6p5--
G|--5\10--9/7--5-7-5--||--5-5-5---5--7---------
D|--------------------||--5-5-5----------------
A|--------------------||-----------------------
E|--------------------||-----------------------


                     X 3
E|--------------------||----------------------------
B|--------------------||----------6/5--3------------
G|--5\10--9/7--5-7-5--||--5-5-5-----------2---------
D|--------------------||--5-5-5--------------0------
A|--------------------||----------------------------
E|--------------------||----------------------------


Verse 2

Chorus

2nd. Bridge:

E|-----------------------------------------------------
B|--1\3--3-3--1h3p1h3---1-1-1---*----------------------
G|----------------------0-0-0--------------------------  *= you can play a 
D|-----------------------------------------------------     C-chord
A|-----------------------------------------------------
E|-----------------------------------------------------


Solo:

E|---------------------3-3-3\5-5-5-5-5-5--10-10-10/8-8-8-8\10-10---
B|--3-3-3\5-5-5-5-5-5--3-3-3\5-5-5-5-5-5--10-10-10/8-8-8-8\10-10---
G|--2-2-2\4-4-4-4-4-4----------------------------------------------
D|-----------------------------------------------------------------
A|-----------------------------------------------------------------
E|-----------------------------------------------------------------

E|--3-3-3\5-5-5-5/3---------
B|--3-3-3\5-5-5-5/3--3-3----
G|-------------------2-2----
D|--------------------------
A|--------------------------
E|--------------------------


There is a second part to the solo, but it's too hard to tab out because 
of all the screaming, drums & strings.


Chorus and fade


If you have any questions or comments about the tab please let me know.
This version just plain ROCKS!!!!!!


GOD bless you,


Dean
dometexp@aol.com

Comments about this tab

No comments/corrections found. Add your own

Complimentary Christian Ringtones
Dadamobile and CGR have teamed up to bring your favorite Christian artists right to your phone. Sign up today and get 10 complementary ringtones!
Tab Country
Did you know CGR has a sister site w/ country guitar tabs? Well we do! Its called Tab Country. It has a great archive with a lot of country tabs.
Rockin Tabs
Are you looking for a site that has rock guitar tabs? Then Rockintabs.com is the place for you. It is a budding site with many rock guitar tabs. Submit your tab today.
Tab Gallery
Tab Gallery has a compilation of christian, rock, and country tabs all in one place. Come visit us.