Guitar Tabs
song title    band name

Join Us Today!

Don't strum alone...
be a part of the largest online Christian music community. Browse thousands of guitar tabs and chat w/ musicians like yourself.


It's Free!

Pillar - Open Your Eyes

This tab has been rated a 4.00 out of 5 for accuracy. (1 vote)Sorry, but you must be logged in to rate this tab.
Click here to log-in, or you can click here to register.
(Registration is free)

All songs owned by corresponding publishing company. If you make copies of any song on this website, be sure to report your usage to CCLI.
Open Your Eyes by Pillar
Translated by Kennon Bickhart
kbickhart@bigfoot.com

This is my first tab ever, so I'm sorry if it really bites, but I'm trying.
Also, the words are what I interpreted them to be, so if they're wrong, just
go ahead and correct them...

Verse 1:
e------------------|
B------------------|
G------------------|
D--2-2-3-2-2-3-2-2-|
A--2-2-3-2-2-3-2-2-|
E--0-0-1-0-0-1-0-0-|

Chorus:
e---------------------------------------------------------------|
B---------------------------------------------------------------|
G---------------------------------------------------------------|
D-5-5--5-5-5--5-5--5-5-5--7---3-3--3-3-3--3-3--3-3-3-x-3-x-3-x-5|
A-5-5--5-5-5--5-5--5-5-5--7---3-3--3-3-3--3-3--3-3-3-x-3-x-3-x-5|
E-3-3--3-3-3--3-3--3-3-3--5---1-1--1-1-1--1-1--1-1-1-x-1-x-1-x-3|

Verse 2:
e------------------|
B------------------|
G------------------|
D--2-2-3-2-2-3-2-2-|
A--2-2-3-2-2-3-2-2-|
E--0-0-1-0-0-1-0-0-|


Chorus:
e---------------------------------------------------------------|
B---------------------------------------------------------------|
G---------------------------------------------------------------|
D-5-5--5-5-5--5-5--5-5-5--7---3-3--3-3-3--3-3--3-3-3-x-3-x-3-x-5|
A-5-5--5-5-5--5-5--5-5-5--7---3-3--3-3-3--3-3--3-3-3-x-3-x-3-x-5|
E-3-3--3-3-3--3-3--3-3-3--5---1-1--1-1-1--1-1--1-1-1-x-1-x-1-x-3|

Bridge:

Harmonics on the frets:
e-------------|
B-------------|
G-------------|
D-------------|
A---7---7-----|
E-5---5---5-5-|

Back to power chords:
e---------------------------------------------------
B---------------------------------------------------
G---------------------------------------------------
D-5-3-5-3-7-7-7-7--5-3-5-3-7-7-7-7--5-3-5-3-7-7-7-7-
A-5-3-5-3-7-7-7-7--5-3-5-3-7-7-7-7--5-3-5-3-7-7-7-7-
E-3-1-3-1-7-7-7-7--3-1-3-1-7-7-7-7--3-1-3-1-7-7-7-7-

Repeats a couple times then goes into this:

e-----------|
B-----------|
G-------5---|
D-5-3-7-5-5-|
A-5-3-7-3-5-|
E-3-1-5---3-|

Back to chorus:

e---------------------------------------------------------------|
B---------------------------------------------------------------|
G---------------------------------------------------------------|
D-5-5--5-5-5--5-5--5-5-5--7---3-3--3-3-3--3-3--3-3-3-x-3-x-3-x-5|
A-5-5--5-5-5--5-5--5-5-5--7---3-3--3-3-3--3-3--3-3-3-x-3-x-3-x-5|
E-3-3--3-3-3--3-3--3-3-3--5---1-1--1-1-1--1-1--1-1-1-x-1-x-1-x-3|

Ending (Just like the verses but ending on the triple F power chord):

e-------------------------|
B-------------------------|
G-------------------------|
D--2-2-3-2-2-3-2-2--3-3-3-|
A--2-2-3-2-2-3-2-2--3-3-3-|
E--0-0-1-0-0-1-0-0--1-1-1-|

Hey if there are any mess ups, then I'm sorry.  Feel free to correct
anything you'd like...

Comments about this tab

No comments/corrections found. Add your own

Complimentary Christian Ringtones
Dadamobile and CGR have teamed up to bring your favorite Christian artists right to your phone. Sign up today and get 10 complementary ringtones!
Tab Country
Did you know CGR has a sister site w/ country guitar tabs? Well we do! Its called Tab Country. It has a great archive with a lot of country tabs.
Rockin Tabs
Are you looking for a site that has rock guitar tabs? Then Rockintabs.com is the place for you. It is a budding site with many rock guitar tabs. Submit your tab today.
Tab Gallery
Tab Gallery has a compilation of christian, rock, and country tabs all in one place. Come visit us.