Guitar Tabs
song title    band name

Join Us Today!

Don't strum alone...
be a part of the largest online Christian music community. Browse thousands of guitar tabs and chat w/ musicians like yourself.


It's Free!

Philmore - Our Finest Hour

This tab has been rated a 3.00 out of 5 for accuracy. (1 vote)Sorry, but you must be logged in to rate this tab.
Click here to log-in, or you can click here to register.
(Registration is free)

All songs owned by corresponding publishing company. If you make copies of any song on this website, be sure to report your usage to CCLI.
-------------------------------------------------------------------------------
OUR FINEST HOUR - Philmore
-------------------------------------------------------------------------------

Intro Notes	    Solo 1 (0:14)
e|------------|--------------------------------------------------------------|
B|-8-7-5~~----|-8-888-8\77\5-555-5-7-8-888-8-7-5h(7)-------------------------|
G|------------|--------------------------------------------------------------|
D|------------|--------------------------------------------------------------|
A|------------|--------------------------------------------------------------|
E|------------|--------------------------------------------------------------|
 
Dm                             C              
The end of endings has started
Bb
The battle lines have been drawn
C
And as the smoke clears we will be the ones marching on
Dm    Bb C
Whoa, Whoa
Dm                                 C
The gates of hell have been shaken
Bb
Terror fills their eyes
C                                                 Dm Bb C
As we attack we lift our voices in the battle cry 
  
Dm                        Bb
We will fight, we will be strong
C                       F E/C
Together we're marching on
Dm                  Bb
United, we move as one
C                             D
Our finest hour has just begun 
Bb C F E C E D 

Solo 2 (1:21)
e|-----------------------------------------------------------------------------|
B|-8-7-5--5-8-7-5--5-8-7-5--5-8-7-5----8-7-5---8-7-5---8-7-5---8-7-5-----------|
G|-----------------------------------7-------7-------7-------7-----------------|
D|-----------------------------------------------------------------------------|
A|-----------------------------------------------------------------------------|
E|-----------------------------------------------------------------------------|  

e|-------------------/12-12--10--8--12--10--8--8-12-10-8--8-12-10-8--8-12-10-8-|
B|-/8-77-5-7-8-5/7-7-----------------------------------------------------------|
G|-----------------------------------------------------------------------------|
D|-----------------------------------------------------------------------------|
A|-----------------------------------------------------------------------------|
E|-----------------------------------------------------------------------------|

e|----12-10-8----12-10-8----12-10-8----12-10-8--12-1010-8-10/12-10/12\10-10----|
B|-11---------11---------11---------11-----------------------------------------|
G|-----------------------------------------------------------------------------|
D|-----------------------------------------------------------------------------|
A|-----------------------------------------------------------------------------|
E|-----------------------------------------------------------------------------|

Dm                            C
The host of darkness before us
Bb
Their shallow eyes filled with pain
C
There's no escaping all the angels and their eternal chains
Dm    Bb C
Whoa, whoa
Dm                          C
Our final surging battallion
Bb
The massive gates crumble in
C                                                               Dm Bb C
Our shouts of victory meet the strains of tortured screams from within

Dm                        Bb
We will fight, we will be strong
C                       F E/C
Together we're marching on
Dm                  Bb
United, we move as one
C                             D
Our finest hour has just begun 
Bb C F E C E D 

Solo 3 (2:41)
e|---------------------------------------------------------------------------|
B|-8^^(8)-7-5^-5^^(5)-7-8-888\7-777\5-55-5-5/7-7/8-/8------------------------|
G|---------------------------------------------------------------------------|
D|---------------------------------------------------------------------------|
A|---------------------------------------------------------------------------|
E|---------------------------------------------------------------------------|

e|-12^^(12)-10-8^-8^^(8)-10-12--12-12-12\10--10-10-10\8-88-8/10-10/12-/12----|
B|---------------------------------------------------------------------------|
G|---------------------------------------------------------------------------|
D|---------------------------------------------------------------------------|
A|---------------------------------------------------------------------------|
E|---------------------------------------------------------------------------|

e|-----------------------------------------------------------------------------|
B|-8-7-5--5-8-7-5--5-8-7-5--5-8-7-5----8-7-5---8-7-5---8-7-5---8-7-5-----------|
G|-----------------------------------7-------7-------7-------7-----------------|
D|-----------------------------------------------------------------------------|
A|-----------------------------------------------------------------------------|
E|-----------------------------------------------------------------------------|  

e|-------------------/12-12--10--8--12--10--8--8-12-10-8--8-12-10-8--8-12-10-8-|
B|-/8-77-5-7-8-5/7-7-----------------------------------------------------------|
G|-----------------------------------------------------------------------------|
D|-----------------------------------------------------------------------------|
A|-----------------------------------------------------------------------------|
E|-----------------------------------------------------------------------------|

e|----12-10-8----12-10-8----12-10-8----12-10-8--12-1010-8-10/12-10/12\10-10----|
B|-11---------11---------11---------11-----------------------------------------|
G|-----------------------------------------------------------------------------|
D|-----------------------------------------------------------------------------|
A|-----------------------------------------------------------------------------|
E|-----------------------------------------------------------------------------|

Dm                        Bb
We will fight, we will be strong
C                       F E/C
Together we're marching on
Dm                  Bb
United, we move as one
C                             D
Our finest hour has just begun 
Bb C F E C E D 

Ending: Bb C F E C E D E F G F G A G F E C E D

E/C: 0355 or just play an E and let the Bass play the C
I think it sound better like that. Enjoy

(c) 1998  J. Greiman  All rights reserved

Comments about this tab

thephillipdiffe - 2004-12-29

The chords are good, but the solos way off. Check out the solo tab for the right one.


mondaymrningfan - 2005-03-12

Hey I was just wondering how many cd's tey have. I have the self-titled album but I see other songs ont he tab list that I don't have. Can anyone enlighten me?


Add a comment/correction

Complimentary Christian Ringtones
Dadamobile and CGR have teamed up to bring your favorite Christian artists right to your phone. Sign up today and get 10 complementary ringtones!
Tab Country
Did you know CGR has a sister site w/ country guitar tabs? Well we do! Its called Tab Country. It has a great archive with a lot of country tabs.
Rockin Tabs
Are you looking for a site that has rock guitar tabs? Then Rockintabs.com is the place for you. It is a budding site with many rock guitar tabs. Submit your tab today.
Tab Gallery
Tab Gallery has a compilation of christian, rock, and country tabs all in one place. Come visit us.