Guitar Tabs
song title    band name

Join Us Today!

Don't strum alone...
be a part of the largest online Christian music community. Browse thousands of guitar tabs and chat w/ musicians like yourself.


It's Free!

Philmore - Livin' On A Prayer

This tab has not yet been rated for accuracy.Sorry, but you must be logged in to rate this tab.
Click here to log-in, or you can click here to register.
(Registration is free)

All songs owned by corresponding publishing company. If you make copies of any song on this website, be sure to report your usage to CCLI.
Livin' On A Prayer - Philmore (John Bon Jovi Cover Song)
(c) 2000 5 Minute Walk Records

Intro
D Bb C ...
(Once upon a time, not so long ago ....)

Verse 1 Riff
e|---------------------------------------------------------------------------|
B|---------------------------------------------------------------------------|
G|---------------------------------------------------------------------------|
D|--7-7-7-7-7-7\5/7----------------------------------------------------------|
A|--5-5-5-5-5-5\3/5----------------------------------------------------------|
E|-[---P.M.--]---------------------------------------------------------------|
D                                
Tommy used to work on the docks
D
Union's been on strike. He's down on his luck
      Bb      C           D
It's though,   so though.
D
Gina work the dinner all day
D
Working for her man. She brings home hre pay
	Bb	  C		  D
For love, for love.

Pre-Chorus 1
                       Bb   C                D
She says we've got to hold on to what we've got.
Bb                 C                           D
It doesn't make a difference if we make it or not.
       Bb        C                 D        Bb
We've got each other and that's a lot, for love.
      C
We'll give it a shot.

Chorus
D   Bb          C           F                 C
Woooo, we're halfway there, wooo, livin' on a prayer.
D        Bb         C
Take my hand we'll make it, I swear
F  Bb C
Wooo, livin' on a prayer

Verse 2 (Same As Verse 1)
Tommy's got his six string in hock,
now he's holding in, what he used to make it talk
So though, it's so though.

Fill (1:32)
e|--------8/10-10^^-12-8-----------------------------------------------------|
B|-8^^-6---------------------------------------------------------------------|
G|---------------------------------------------------------------------------|
D|---------------------------------------------------------------------------|
A|---------------------------------------------------------------------------|
E|---------------------------------------------------------------------------|

Gina dreams of running away
When she cries in the night, Tommy whispers:
Baby it's O.K., some day.

Pre-Chorus 2 (Same as Pre-Chorus 1)
We've got to hold on ....

Chorus 2
D   Bb          C           F                 C
Woooo, we're halfway there, wooo, livin' on a prayer.
D        Bb         C
Take my hand we'll make it, I swear
F  Bb C
Wooo, livin' on a prayer
Bb
Livin' on a prayer.

Rhythm for Solo: D, Bb, C, F, Bb, C ...

Solo: (2:19)
e|---------------------------------------------------------------------------|
B|------------------------------10-8-----------------------------------------|
G|-----------5-7^^(7)--7-5~-7-9------9-7-5-7^^(7)-5~-------------------------|
D|-----5-5-7-----------------------------------------------------------------|
A|-5-7-----------------------------------------------------------------------|
E|---------------------------------------------------------------------------|

e|---------------------------------------------------------------------------|
B|-----------------------10-8------------------------------------------------|
G|-----5-5-5--7-7-5-7-9--------9--7-7^^7^^7^^7^^/9---------------------------|
D|-5-7-----------------------------------------------------------------------|
A|---------------------------------------------------------------------------|
E|---------------------------------------------------------------------------|

D                         Bb  C             D C
Oooooooooh, we've got to hold on, ready or not
      Bb                           C
You live for the fight when it's all that you've got.


C    Db        Eb    
Woooooo, we're half ---- way there
C    Db  Eb
Woooooo, livin' on a prayer
F       Db             Eb
Take my hand and we'll make it I swear
C   Db Eb
Woooo, livin on a prayer

Comments about this tab

No comments/corrections found. Add your own

Complimentary Christian Ringtones
Dadamobile and CGR have teamed up to bring your favorite Christian artists right to your phone. Sign up today and get 10 complementary ringtones!
Tab Country
Did you know CGR has a sister site w/ country guitar tabs? Well we do! Its called Tab Country. It has a great archive with a lot of country tabs.
Rockin Tabs
Are you looking for a site that has rock guitar tabs? Then Rockintabs.com is the place for you. It is a budding site with many rock guitar tabs. Submit your tab today.
Tab Gallery
Tab Gallery has a compilation of christian, rock, and country tabs all in one place. Come visit us.