Guitar Tabs
song title    band name

Join Us Today!

Don't strum alone...
be a part of the largest online Christian music community. Browse thousands of guitar tabs and chat w/ musicians like yourself.


It's Free!

PFR - Line of Love

This tab has not yet been rated for accuracy.Sorry, but you must be logged in to rate this tab.
Click here to log-in, or you can click here to register.
(Registration is free)

All songs owned by corresponding publishing company. If you make copies of any song on this website, be sure to report your usage to CCLI.
Line of Love
Artist: PfR
Album:Them

Transcribed by Van Moore <>
Corrected by chris.furbush@juno.com (chris furbush)

At the operning of the song, the guitar plays a harmonic of the 3rd fret
on the 6th string (low E).  The rhythm is one te......three te..... and so
on for 4 measures.  then begins riff 1.  the lyrics and progression of the
song is at the end of this prog.

  Riff 1
E:-----------------------------------------------------------------------------
B:-----------------------------------------------------------------------------
G:-----------------------------------------------------------------------------
D:----------------------------6-6-6-6-4------------------------2-h4-p2--2-h4-p2
A:-7-7-7-7--4-4-4-4--2-2-2-2------------7--9-9-9-9--4444--2222-----------------
E:-5-5-5-5--2-2-2-2--0-0-0-0---------------7-7-7-7--2222--0000-----------------

E:----------------------------------------------------------------------------
B:----------------------------------------------------------------------------
G:----------------------------------------------------------------------------
D:----------------------------6-6-6-6-4---------------------------------------
A:-7-7-7-7--5-5-5-5--2-2-2-2------------7--9-9-9-9--4-4-4-4--2-2-2-2--2-2-2-2-
E:-5-5-5-5--3-3-3-3--0-0-0-0---------------7-7-7-7--2-2-2-2--0-0-0-0--0-0-0-0-

  Riff 2
E:----------------------------------------------------------------------------
B:----------------------------------------------------------------------------
G:----------------------------------------------------------------------------
D:-5-5-x------------5-5-x------------5-5-x-------------------0-0-2~~----------
A:-3-3-x-3--3-3-3---3-3-x-3--3-3-3---3-3-x-3--3-3-3------2-2------------------
E:-------1--1-1-1---------1--1-1-1---------1--1-1-1--3-3----------------------

E:----------------------------------------------------------------------------
B:----------------------------------------------------------------------------
G:---------------------------------------------------*------------------------
D:-5-5-x-----------5-5-x-----------5-5-5-5--4-4-4-4--2-2-2-2------------------
A:-3-3-x-3--3-3-3--3-3-x-3--3-3-3--3-3-3-3--2-2-2-2--0-0-0-0------------------
E:-------1--1-1-1--------1--1-1-1---------------------------------------------
                                                   *substitute this A chord when 
                                                    repeating back to Riff 1
  Solo
E:----------------------------------------------------------------------------
B:----------------------------------------------------------------------------
G:------10------9------4---4-h5-4-------10-------9------4----7----12~~--------
D:---/7------/7-----/2---2-----------/7-------/7-----/2---/5---/9-------------
A:-0-------0-----------------------0--------0---------------------------------
E:----------------0--------------------------------0--------------------------

E:----------------------------------------------------------------------------
B:----------------------------------------------------------------------------
G:-----10------9------4---4-h5-4---1--h4-1-/4--4-h7-4-/7--9-p7--9-/11-/13~~---
D:--/7------/7-----/2---2-----------------------------------------------------
A:-0------0-------------------------------------------------------------------
E:---------------0------------------------------------------------------------

  Piano solo riff (Actually a guitar with effects)(play 2X)
E:-----------------------------------------------------------------------------
B:-----------------------------------------------------------------------------
G:-----------------------------------------------------------------------------
D:-----------------------------------------------------------------------------
A:-7-7-7-7-\-4-4-4-4-\-2-2-2-2--2-2-2-2--/-9-9-9-9-\-4-4-4-4-\-2-2-2-2--2-2-2-2
E:-5-5-5-5-\-2-2-2-2-\-0-0-0-0--0-0-0-0--/-7-7-7-7-\-2-2-2-2-\-0-0-0-0--0-0-0-0

The progression of the song goes:
 Intro (harmonic thing)
 Verse 1 (Riff 1)
		Okay, you're right...I cannot fight this all alone
		Let in the light...I need to know
	Chorus 1 (Riff 2)
		Your line of love goes on and on  Drawn in a circle, drawn apon  
		my heart and I can't erace it
		This line of love connecting me to you forever knowing when 
		I fall you'll help me to face
 Verse 2 (Riff 1)
		Facing myself...hasn't been easy
		Can't hide any longer...those days are through
	Chorus 2 (Riff 2)
		Your line of love goes on and on  Leads to a place where I belong
		Where mercy waits to embrace me
  This line of love draws me in forgiving forgetting my sin
		and in Your Grace it has traced me
 Guitar solo
 Piano solo
	Chorus 1 (Riff 2) 
	Chorus 2 (Riff 2) fade

Solo 2:
E:--------------------<12>--|------------------------------|--------
B:14------------------------|17----------------------------|--------
G:---14-16------------------|---14-16----------------------|--------
D:---------14--16-----14----|---------14-16----------------|--------
A:----------------14--------|---------------14-16-17-16-14-|--------
E:--------------------------|------------------------------|17-<12>-

E :--<5>-------|
B :------------|
G :------------|
D :------------|
A :------------|
E :------------|

Comments about this tab

No comments/corrections found. Add your own

Complimentary Christian Ringtones
Dadamobile and CGR have teamed up to bring your favorite Christian artists right to your phone. Sign up today and get 10 complementary ringtones!
Tab Country
Did you know CGR has a sister site w/ country guitar tabs? Well we do! Its called Tab Country. It has a great archive with a lot of country tabs.
Rockin Tabs
Are you looking for a site that has rock guitar tabs? Then Rockintabs.com is the place for you. It is a budding site with many rock guitar tabs. Submit your tab today.
Tab Gallery
Tab Gallery has a compilation of christian, rock, and country tabs all in one place. Come visit us.