Guitar Tabs
song title    band name

Join Us Today!

Don't strum alone...
be a part of the largest online Christian music community. Browse thousands of guitar tabs and chat w/ musicians like yourself.


It's Free!

PFR - Great Lengths

This tab has been rated a 3.00 out of 5 for accuracy. (1 vote)Sorry, but you must be logged in to rate this tab.
Click here to log-in, or you can click here to register.
(Registration is free)

All songs owned by corresponding publishing company. If you make copies of any song on this website, be sure to report your usage to CCLI.
Song: Great Lengths
Artist: PFR
Chords by  Phil Wittmer 
Edited by Brian Kurtyka 
Additions by Jed Carson
jclgreat@juno.com
members.xoom.com/jclg/jed.html

 Intro -
two organs- 1 plays first half of chorus
2nd organ arranged for guitar:
-------------------------------------------------------------------------
-------------------------------------------------------------------------
-------------------------------------------------------------------------
--0----2--4--------------------------------------------------------------
-------------4----2----4h5p4--0-------2----4h5p4--0----------------------
---------------------------------2-------------------2----3----5---------

Then:

Guitar 1 (acoustic) left channel
E   F#m   A  E   F#m   A  E   F#m   A  E  A

Verse 1 -
Gtr 1- constant strum
Gtr 2 (elec) right channel, clean, strum once, at beginning of chord

Dm               A    F#m     Bm            E
Here I am once again, pleading. to the sky, kneeling to
                  F#m  A    Dm  A  Dm
the sands, shedding my   re - grets,    knowing you'll
             A
forget everything.

Chorus -
Gtr 1- same strumming patern as verse
Gtr 2- just like verse, except w/ flanger

  D        A       Bm         F#m        Bm     F#m
Why didn't I go to such great lengths to try to please
        G               A      D              A
You, instead I tried to please myself. In the end when
      Bm      F#m      Bm      F#m      G         A      Dm
Your heart is broken I see the folly of trying to please myself.

Verse 2 -

Dm               A      F#m   Bm          E
I have not yet arrived, seeing  anything, quiet my desires
          F#m    A       Dm  A    Dm             A
till they die,   until they die      or align with Your will.

Chorus

Bridge -
Gtr 2-w/ flanger

Bm/B   Bm/G   Bm/E   C   A

Chorus-2x
Gtr 1 only (first half first time)

Outro-
Guitar 1
E   F#m   A  E   F#m   A  E   F#m   A  E  A
Then:
-------------------------------------------------------------------------
-------------------------------------------------------------------------
-------------------------------------------------------------------------
-7--4--------------------------------------------------------------------
-------7--4----0---------------------------------------------------------
-------------------------------------------------------------------------

Comments about this tab

No comments/corrections found. Add your own

Complimentary Christian Ringtones
Dadamobile and CGR have teamed up to bring your favorite Christian artists right to your phone. Sign up today and get 10 complementary ringtones!
Tab Country
Did you know CGR has a sister site w/ country guitar tabs? Well we do! Its called Tab Country. It has a great archive with a lot of country tabs.
Rockin Tabs
Are you looking for a site that has rock guitar tabs? Then Rockintabs.com is the place for you. It is a budding site with many rock guitar tabs. Submit your tab today.
Tab Gallery
Tab Gallery has a compilation of christian, rock, and country tabs all in one place. Come visit us.