Guitar Tabs
song title    band name

Join Us Today!

Don't strum alone...
be a part of the largest online Christian music community. Browse thousands of guitar tabs and chat w/ musicians like yourself.


It's Free!

PFR - Daddy Never Cried


All songs owned by corresponding publishing company. If you make copies of any song on this website, be sure to report your usage to CCLI.
Song:Daddy Never Cried
Group:PFR
Album:Them

Ok all, first tab but I made sure it was extremely accurate, If you
find something wrong it will be minor. You'll have you figure out the
picking and the strumming, I'll just tell your where to put your fingers.
You really need to listen to the song to know how to play it anyway. also
I don't have the begining, if I learn it I'll send it. Wolfbear@egl.net

Verse1
E----------------------------------------------------------------
B----------------------------------------------------------------
G----------------------------------------------------------------
D----------------------------------------------------------------
A---2--5--2--5--4--5--4--5--5--7--5--7---------------------------
E---0--3--0--3--2--7--2--7--7--9--7--9---------------------------
Play as many times as the song requires, then...

Pre-chorus
D----------
A---7--5--9
E---5--3--7

Ok now chorus
D----------------------------------------------------------------
A---12----2--5--2--5--2--5--2--5--12-----------------------------
E---10----0--3--0--3--0--3--0--3--10-----------------------------

Do this as many times as is played then end the chorus like this
D----------
A---7--5--9
E---5--3--7

End of solo(I don't think you need or want to know how the solo is
played its just not worth it) and then play this and go back to chorus
D-------------------
A---9--11--9--11--12
E---7--9---7--9---10

Comments about this tab

No comments/corrections found. Add your own

Complimentary Christian Ringtones
Dadamobile and CGR have teamed up to bring your favorite Christian artists right to your phone. Sign up today and get 10 complementary ringtones!
Tab Country
Did you know CGR has a sister site w/ country guitar tabs? Well we do! Its called Tab Country. It has a great archive with a lot of country tabs.
Rockin Tabs
Are you looking for a site that has rock guitar tabs? Then Rockintabs.com is the place for you. It is a budding site with many rock guitar tabs. Submit your tab today.
Tab Gallery
Tab Gallery has a compilation of christian, rock, and country tabs all in one place. Come visit us.