Guitar Tabs
song title    band name

Join Us Today!

Don't strum alone...
be a part of the largest online Christian music community. Browse thousands of guitar tabs and chat w/ musicians like yourself.


It's Free!

This tab has been rated a 2.00 out of 5 for accuracy. (1 vote)Sorry, but you must be logged in to rate this tab.
Click here to log-in, or you can click here to register.
(Registration is free)

All songs owned by corresponding publishing company. If you make copies of any song on this website, be sure to report your usage to CCLI.
Title  : Lullaby
Artist : Pedro the Lion
By     : David Bazan
c1996 bumpkin music
Tooth and Nail Records
Tabbed By : Nate and Brandon 

Part A                                                                         
||------------|-----------|-----------------|---------------------||
||------------|-----------|-----------------|---------------------||
||*--------0--|--------0--|-----------------|--------------------*||
||*-----2-----|-----2-----|--------2--3--2--|--------3--0--2--0--*||
||---3--------|--0--------|-----3-----------|-----3---------------||
||------------|-----------|--1--------------|--1------------------||

Part B                                                                                
|----------|-----------------|-----------|--------------------|
|----------|-----------------|-----------|--------------------|
|-------0--|-----------------|--------0--|--------------------|
|----2-----|--------2--3--2--|-----2-----|--------3--0--2--0--|
|-3--------|-----3-----------|--3--------|-----3--------------|
|----------|--1--------------|-----------|--1-----------------|
                                                                                

Part B  (cont.)                                                                              
|-----------r-----|-----------|-----------------|--||
|-----------e-----|-----------|-----------------|--||
|-----------s--0--|--------0--|-----------------|--||
|-----------t-----|-----2-----|--------2--3--2--|--||
|-----------------|--3--------|-----3-----------|--||
|-----0--0--------|-----------|--1--------------|--||
                                                                                

Chorus - Bass Only                                                              

E|-3--5--7--8--3--5--12--13--10--12--13--12--7--5--3--5--1--8--15--13--3--8-
                                                                                

Bridge                                    
||----------------------------------------||
||----------------------------------------||
||----------------------------------------||
||---10--9--7--5--12--10--12--14--12--10--||
||---10--9--7--5--12--10--12--14--12--10--||
||---8---7--5--3--10--8---10--12--10--8---||


Part C                                                                                
|----------------|-----------------|-----------------|--------------------|
|----------0--1--|-----------0--1--|-----------------|--------------------|
|-------0--------|--------0--------|-----------------|--------------------|
|----2-----------|-----2-----------|--------2--3--2--|--------3--0--2--0--|
|-3--------------|--0--------------|-----3-----------|-----3--------------|
|----------------|-----------------|--1--------------|--1-----------------|
                                                                                
                                                                                
|----------------|-----------------|-----------------|--------------||
|----------0--1--|-----------0--1--|-----------------|--------------||
|-------0--------|--------0--------|-----------------|--------------||
|----2-----------|-----2-----------|--------2--3--2--|--------2--3--||
|-3--------------|--0--------------|-----3-----------|-----0--------||
|----------------|-----------------|--1--------------|--3-----------||
                                                                                


Lyrics

Part A - 2 times

Part A - 2 times
the sun shines leaves blow and my hope like autumn is turning brown
i know it seems like i am always falling down

Part B
but it does not matter to me although it seems like it should
it is because i know i am understood when i hear him say

Chorus  
rest in me little david
and dry all your tears
you can lay down your armor
and have no fear
i'm always hear when your tired of running
i'm all the strength that you need

Part A
its up hill both ways
tomorrow i swear i won't act this way
i know it seems like that is what i always say
but it does not matter to me although it seems like it should
it is because i know i am understood when i hear him say

Chorus  
rest in me little david
and dry all your tears
you can lay down your armor
and have no fear
i'm always hear when your tired of running
i'm all the strength that you need

Bridge
you know i want to be like Jesus
but it seems so very far away
when will i learn to obey

Part C

I think the bass part is mostly roots except for the chorus.
The chorus notes and the bridge chords are each played 
more times than listed (four to six times I think). 
Listen to the Cd it rules!
Comments or any other mail to bknight@pcok.com
Long Live "Mr. Bishop's Fist"

   
   @ *    | |

   /~\    \_/

Comments about this tab

Rpgdudester - 2004-09-23

Hey there, me and my girlfriend were listening to the song, and we realized that the end part of part C is wrong. it's really

|----------------|-----------------|-----------------|--------------||
|----------0--1--|-----------0--1--|-----------------|--------------||
|-------0--------|--------0--------|-----------------|--------------||
|----2-----------|-----2-----------|--------2--3--2--|--------------||
|-3--------------|--0--------------|-----3-----------|-----0--2--3--||
|----------------|-----------------|--1--------------|--3-----------||


Add a comment/correction

Complimentary Christian Ringtones
Dadamobile and CGR have teamed up to bring your favorite Christian artists right to your phone. Sign up today and get 10 complementary ringtones!
Tab Country
Did you know CGR has a sister site w/ country guitar tabs? Well we do! Its called Tab Country. It has a great archive with a lot of country tabs.
Rockin Tabs
Are you looking for a site that has rock guitar tabs? Then Rockintabs.com is the place for you. It is a budding site with many rock guitar tabs. Submit your tab today.
Tab Gallery
Tab Gallery has a compilation of christian, rock, and country tabs all in one place. Come visit us.