Guitar Tabs
song title    band name

Join Us Today!

Don't strum alone...
be a part of the largest online Christian music community. Browse thousands of guitar tabs and chat w/ musicians like yourself.


It's Free!

This tab has not yet been rated for accuracy.Sorry, but you must be logged in to rate this tab.
Click here to log-in, or you can click here to register.
(Registration is free)

All songs owned by corresponding publishing company. If you make copies of any song on this website, be sure to report your usage to CCLI.
=========================================================================
                   ==JCHC by Officer Negative==
=========================================================================
                      tabbed by Travis Garrecht (Youth in Submission)



This is the main riff listen to the cd to get the timing down                                      
-------------------------------------------|
-------------------------------------------|
-------------------------------------------|
-7--7--7---------------------10--10--9--9--|
-5--5--5--7--7--7---8--8--8--8---8---7--7--|
----------5--5--5---6--6--6----------------|


           This is the chorus riff
-----------------------------------------------|
-----------------------------------------------|
-----------------------------------------------|
7--7--7--7--10--10--10--10--9--9--9--9---------|
5--5--5--5--8---8---8---8---7--7--7--7--10-10--|
----------------------------------------8--8---|




   heres the solo and thats it.......
---------------------------------------------------|----
---------------------------------------------------|----
-7--7--7--7--10--10--9--7--5--5--5--5--------------|----
---------------------------------------7--7--7--7--|----
---------------------------------------------------|----
---------------------------------------------------|----


-------------------------------------------------------------|
-----------------------------11--11--11--11--10--10--10--10--|
---7--7--7--7--10--10--9--7----------------------------------|
-------------------------------------------------------------|
-------------------------------------------------------------|
-------------------------------------------------------------|




Hey what's up? Learned this after playing a few shows with Officer Negative
so learn it and play it for your school talent show, cause as we know, 
everybody loves old school christian punk rock:-) feel free to email 
youth in submission at Y-I-S@juno.com and ask us any questions if you 
have them, thanks and godbless, oh yeah, go see Officer Negative if you 
can, its a rad show, and odds are we will be there

Comments about this tab

No comments/corrections found. Add your own

Complimentary Christian Ringtones
Dadamobile and CGR have teamed up to bring your favorite Christian artists right to your phone. Sign up today and get 10 complementary ringtones!
Tab Country
Did you know CGR has a sister site w/ country guitar tabs? Well we do! Its called Tab Country. It has a great archive with a lot of country tabs.
Rockin Tabs
Are you looking for a site that has rock guitar tabs? Then Rockintabs.com is the place for you. It is a budding site with many rock guitar tabs. Submit your tab today.
Tab Gallery
Tab Gallery has a compilation of christian, rock, and country tabs all in one place. Come visit us.