Guitar Tabs
song title    band name

Join Us Today!

Don't strum alone...
be a part of the largest online Christian music community. Browse thousands of guitar tabs and chat w/ musicians like yourself.


It's Free!

This tab has not yet been rated for accuracy.Sorry, but you must be logged in to rate this tab.
Click here to log-in, or you can click here to register.
(Registration is free)

All songs owned by corresponding publishing company. If you make copies of any song on this website, be sure to report your usage to CCLI.
Artist: Off The Record
Song: Good Times
Album: Remember When

Notation:
/----\ - A tire over to the next measure
AH - Artificial Harmonic
b(xx) - Bend to fret indicated
r(xx) - Release bend to fret indicated
- Vibrato

Intro & Bridge Part 2 (2nd Ending)
E|-----------------|-------------|-----------------|----------------|
B|-----------------|-------------|-----------------|----------------|
G|-7-7-7-7-7-7-7-7-|-------------|-----------------|----------------|
D|-7-7-7-7-7-7-7-7-|-7--7--7--7--|-5-5-5-5-5-5-5-5-|-5-5-5-5--5-5-5-|
A|-5-5-5-5-5-5-5-5-|-4--5--4--5--|-5-5-5-5-5-5-5-5-|-5-5-5-5--5-5-5-|
E|-----------------|-------------|-3-3-3-3-3-3-3-3-|-3-3-3-3--3-3-3-|
                   
E|-----------------|-----------------|-----------------|
B|-----------------|-----------------|-----------------|
G|-----------------|-----------------|-----------------|
D|-9-9-9-9-9-9-9-9-|-7-7-7-7-7-7-7-7-|-5-5-5-5-5-5-5-5-|
A|-9-9-9-9-9-9-9-9-|-7-7-7-7-7-7-7-7-|-5-5-5-5-5-5-5-5-|
E|-7-7-7-7-7-7-7-7-|-5-5-5-5-5-5-5-5-|-3-3-3-3-3-3-3-3-|
AH              |             AH  |                 |
E|-----------------|-----------------|-----------------|
B|-----------------|-----------------|-----------------|
G|-----------------|-----------------|-----------------|
D|-----------------|-------------5p4-|-----------------|
A|-2-------2h4h5---|-0---------------|-5---------------|
E|-----------------|-----------------|-----------------|

E|---------------||--------|-----||
B|-------------o-||------/-|-\---||
G|---------------||------6-|-6---||
D|--5--5--5-5----||-5--5-6-|-6---||
A|--5--5--5-5--o-||-5--5-4-|-4---||
E|--3--3--3-3----||-3--3---|-----||

E|---------------||--------|-----||
B|-------------o-||------/-|-\---||
G|---------------||------2-|-2---||
D|--5--5--5-5----||-5--5-2-|-2---||
A|--5--5--5-5--o-||-5--5-0-|-0---||
E|--3--3--3-3----||-3--3---|-----||

Verses (2x)
E|-----------------|-----------------|-----------------|---------------|
B|-----------------|-----------------|-----------------|---------------|
G|-7-7-7-7-7-7-7-7-|-6-7-7-7-7-7-7-7-|-----------------|---------------|
D|-7-7-7-7-7-7-7-7-|-7-7-7-7-7-7-7-7-|-5---------------|---------------|
A|-5-5-5-5-5-5-5-5-|-5-5-5-5-5-5-5-5-|-5-5-5-5-5-5-5-5-|-5-5-5-5-5-5-5-|
E|-----------------|-----------------|-3-3-3-3-3-3-3-3-|-3-3-3-3-3-3-3-|

E|-----------------|-----------------|-----------------|---------------|
B|-3-3-3-3-2-3-3-3-|-3-3-3-3-3-3-3-3-|-3-3-3-3-3-3-3-3-|---------------|
G|-2-2-2-2-2-2-2-2-|-2-2-2-2-2-2-2-2-|-2-2-2-2-2-2-2-2-|---------------|
D|-0-0-0-0-0-0-0-0-|-0-0-0-0-0-0-0-0-|-0-0-0-0-0-0-0-0-|-2---4p2p0-----|
A|-----------------|-----------------|-----------------|---------------|
E|-----------------|-----------------|-----------------|---------------|

E|-----------------|-----------------|------------------|--------------||
B|-----------------|-----------------|------------------|--------------||
G|-----------------|-----------------|-------AH------AH-|-------AH-----||
D|-----------------|-----------------|------------------|--------------||
A|-9-9-9-9-9-9-9-9-|-7-7-7-7-7-7-7-7-|-5-5-5-5-5-5-5-5--|-5-5-5-4-5----||
E|-7-7-7-7-7-7-7-7-|-5-5-5-5-5-5-5-5-|-3-3-3---3-3-3----|-3-3-3---3----||

E|-----------------|-----------------|------------------|--------------||
B|-----------------|-----------------|------------------|--------------||
G|-----------------|-----------------|------------------|--------------||
D|-----------------|-----------------|------------------|--------------||
A|-9-9-9-9-9-9-9-9-|-7-7-7-7-7-7-7-7-|-5--5-5-5--5-5----|-5--5-5-5--7--||
E|-7-7-7-7-7-7-7-7-|-5-5-5-5-5-5-5-5-|-3--3-3-3--3-3----|-3--3-3-3--5--||

Chorus
E|------------------|----------------|------------------|-------------|
B|------------------|-----AH—AH—AH---|------------------|-------------|
G|------------------|----------------|------------------|----------AH-|
D|-4--4-4-4-4--4-4--|-----4---5---4--|------------------|-----4----0--|
A|-2--2-2-2-2--2-2--|-5-5---5---5----|-5--5-5-5-5--5--5-|-5-5---5-----|
E|------------------|----------------|-3--3-3-3-3--3--3-|-------------|

E|------------------|-----------------|------------------|-----------------|
B|------------------|-----AH—AH—AH----|------------------|-----------------|
G|------------------|-----------------|-7-7-7-7-7-7-7-7--|-7-7-7-7-7-7-7-7-|
D|-4--4-4-4-4--4-4--|-----4---5---4---|-7-7-7-7-7-7-7-7--|-7-7-7-7-7-7-7-7-|
A|-2--2-2-2-2--2-2--|-5-5---5---5-----|-5-5-5-5-5-5-5-5--|-5-5-5-5-5-5-5-5-|
E|------------------|-----------------|------------------|-----------------|

E|------------------|-----------------|------------------|-----------------|
B|------------------|-----------------|------------------|-----------------|
G|------------------|-----------------|------------------|-----------------|
D|-9--9-9-9-9--9--9\|-5-5-5-5-5-5-5-5-|-9--9-9-9-9--9--9\|-5-5-5-5-5-5-5-5-|
A|-9--9-9-9-9--9--9\|-5-5-5-5-5-5-5-5-|-9--9-9-9-9--9--9\|-5-5-5-5-5-5-5-5-|
E|-7--7-7-7-7--7--7\|-3-3-3-3-3-3-3-3-|-7--7-7-7-7--7--7\|-3-3-3-3-3-3-3-3-|

E|------------------|-----------------|-----------------|---------------||
B|------------------|-----------------|-----------------|---------------||
G|------------------|-----------------|-7-7-7-7-7-7-7-7-|-7-7-7-7-7-7-x\||
D|-9--9-9-9-9--9--9\|-5-5-5-5-5-5-5-5-|-7-7-7-7-7-7-7-7-|-7-7-7-7-7-7-x\||
A|-9--9-9-9-9--9--9\|-5-5-5-5-5-5-5-5-|-5-5-5-5-5-5-5-5-|-5-5-5-5-5-5-x\||
E|-7--7-7-7-7--7--7\|-3-3-3-3-3-3-3-3-|-----------------|---------------||

E|------------------|-----------------|-----------------|---------------||
B|------------------|-----------------|-----------------|---------------||
G|------------------|-----------------|-7-7-7-7-6-7-7-7-|-7-7-7-7-9-7-7-||
D|-9--9-9-9-9--9--9\|-5-5-5-5-5-5-5-5-|-7-7-7-7---------|---------------||
A|-9--9-9-9-9--9--9\|-5-5-5-5-5-5-5-5-|-5-5-5-5-5-5-5-5-|-5-5-5-5-7-5-5-||
E|-7--7-7-7-7--7--7\|-3-3-3-3-3-3-3-3-|-----------------|---------------||

Bridge Part 1
E|-----------------|----------------|-----------------|-----------------||
B|-----------------|----------------|-----------------|-----------------||
G|-----------------|----------------|-----------------|-----------------||
D|-2-2-2-2-2-2-2-2-|-2-2-2-2-4--5-5-|-5-5-5-5-5-5-5-5-|-7-7-7-7-7-7-7-7-||
A|-2-2-2-2-2-2-2-2-|-2-2-2-2-4--5-5-|-5-5-5-5-5-5-5-5-|-7-7-7-7-7-7-7-7-||
E|-0-0-0-0-0-0-0-0-|-0-0-0-0-2--3-3-|-3-3-3-3-3-3-3-3-|-5-5-5-5-5-5-5-5-||

E|-----------------|----------------|-----------------|-----------------||
B|-----------------|----------------|-----------------|-----------------||
G|-7-7-7-7-6-7-7-7-|-7-7-7-7-6--7-7-|-6/7-7-7-7-7-7-7-|-7-7-7-7-7-9-7-7-||
D|-----------------|----------------|-----------------|-----------------||
A|-5-5-5-5-5-5-5-5-|-5-5-5-5-4--5-5-|-4/5-5-5-5-5-5-5-|-5-5-5-5-5-5-5-5-||
E|-----------------|----------------|-----------------|-----------------||

Solo
E|-----------------|-4h5------------|-----------------|-----------------|
B|-5h7-------------|----------------|-----------------|-----------------|
G|-----------------|------7--6------|-----------------|-----------------|
D|-----------7--4--|-------------7--|-/---------------|-\---------------|
A|-----------------|----------------|-5b(7)~----------|-5b(7)~r5--------|
E|-----------------|----------------|-----------------|-----------------|

E|-----------------|----------------|-----------------|-----------------|
B|-----------------|----------------|-----------------|-----------------|
G|-----------------|----------------|-----------------|-----------------|
D|-2-2-2-2-2-2-2-2-|-2-2-2-2-4--5-5-|-5-5-5-5-5-5-5-5-|-7-7-7-7-7-7-7-7-|
A|-2-2-2-2-2-2-2-2-|-2-2-2-2-4--5-5-|-5-5-5-5-5-5-5-5-|-7-7-7-7-7-7-7-7-|
E|-0-0-0-0-0-0-0-0-|-0-0-0-0-2--3-3-|-3-3-3-3-3-3-3-3-|-5-5-5-5-5-5-5-5-|

E|-----------------------------|--------------------------|-------------|-------------------|
B|--------10-------10-------10-|----------12--------------|-------------|-------------------|
G|-12b(14)--12b(14)--12b(14)---|-14p12----12--------------|-------------|-------10-12-10-12-|
D|-----------------------------|-------12----15b(16)r(15)-|-12~---------|-10----------------|
A|-----------------------------|--------------------------|-------11-12-|----12-------------|
E|-----------------------------|--------------------------|-------------|-------------------|

E|---------------------------|-------------------------|-----------------|------------------|
B|---------------------------|-------------------------|-----------------|------------------|
G|-7--7--7--7--7--7--7--7----|-7--7--7--7--7--7--7--7--|-----------------|------------------|
D|-7--7--7--7--7--7--7--7----|-7--7--7--7--7--7--7--7--|-2-2-2-2-2-2-2-2-|-2-2-2-2--4---5-5-|
A|-5--5--5--5--5--5--5--5----|-5--5--5--5--5--5--5--5--|-2-2-2-2-2-2-2-2-|-2-2-2-2--4---5-5-|
E|---------------------------|-------------------------|-0-0-0-0-0-0-0-0-|-0-0-0-0--2---3-3-|

E|----------------|---------------|-----------------------|-------------------|
B|----------------|---------------|-----------------------|-------------------|
G|--10~-10h12p10\-|-7h9p7\5-7~~---|------------10-12b(13)-|-12-10-12b(13)-10--|
D|----------------|---------------|-------10--------------|-------------------|
A|----------------|---------------|-11-12----12-----------|-------------------|
E|----------------|---------------|-----------------------|-------------------|

E|-----------------|-----------------|---------------------|-------------------|
B|-----------------|-----------------|---------------------|-------------------|
G|-----------------|-----------------|--7-7-7-7-7-7-7-7----|-7-7-7-7-7-7-7-7---|
D|-5-5-5-5-5-5-5-5-|-7-7-7-7-7-7-7-7-|--7-7-7-7-7-7-7-7----|-7-7-7-7-7-7-7-7---|
A|-5-5-5-5-5-5-5-5-|-7-7-7-7-7-7-7-7-|--5-5-5-5-5-5-5-5----|-5-5-5-5-5-5-5-5---|
E|-3-3-3-3-3-3-3-3-|-5-5-5-5-5-5-5-5-|---------------------|-------------------|

E|--/--------------|--\-------------|-12-10-------------|----------------------|
B|-13--------------|-13-------------|-------13-10-------|-10-----10------------|
G|-----------------|-12b(13)--------|-------------12-10-|-12b(14)---14-14r(12)-|
D|-----------------|----------------|-------------------|----------------------|
A|-----------------|----------------|-----~-------------|----------------------|
E|-----------------|----------------|-------------------|----------------------|

E|-----------------|----------------|-------------------|----------------------|
B|-----------------|----------------|-------------------|----------------------|
G|-----------------|----------------|-------------------|----------------------|
D|-2-2-2-2-2-2-2-2-|-2-2-2-2-4--5-5-|--5-5-5-5-5-5-5-5--|--7-7-7-7-7-7-7-7-----|
A|-2-2-2-2-2-2-2-2-|-2-2-2-2-4--5-5-|--5-5-5-5-5-5-5-5--|--7-7-7-7-7-7-7-7-----|
E|-0-0-0-0-0-0-0-0-|-0-0-0-0-2--3-3-|--3-3-3-3-3-3-3-3--|--5-5-5-5-5-5-5-5-----|

E|-------------------------------------|-------------------------------------|
B|-15p12p10-15p12p10-15p12p10-15p12p10-|-15p12p10-15p12p10-15p12p10-15p12p10-|
G|-------------------------------------|-------------------------------------|
D|-------------------------------------|-------------------------------------|
A|-------------------------------------|-------------------------------------|
E|-------------------------------------|-------------------------------------|

E|-------------------------------------|-------------------------------------|
B|-------------------------------------|-------------------------------------|
G|----7---7---7---7---7---7---7---7----|----7---7---7---7---7---7---7---7----|
D|----7---7---7---7---7---7---7---7----|----7---7---7---7---7---7---7---7----|
A|----5---5---5---5---5---5---5---5----|----5---5---5---5---5---5---5---5----|
E|-------------------------------------|-------------------------------------|

E|-------------------------------------|-------------------------------------|
B|-17p14p12-17p14p12-17p14p12-17p14p12-|-17p14p12-17p14p12-19p14p12-19p14p12-|
G|-------------------------------------|-------------------------------------|
D|-------------------------------------|-------------------------------------|
A|-------------------------------------|-------------------------------------|
E|-------------------------------------|-------------------------------------|

E|-------------------------------------|-------------------------------------|
B|-------------------------------------|-------------------------------------|
G|-------------------------------------|-------------------------------------|
D|----2---2---2---2---2---2---2---2----|----2----2----2----2----2----2---4/--|
A|----2---2---2---2---2---2---2---2----|----2----2----2----2----2----2---4/--|
E|----0---0---0---0---0---0---0---0----|----0----0----0----0----0----0---2/--|

E|-------------------------|---------------------/------|--\-----------|-----||
B|-19p15-19p15-19p15-19p15-|-22p17-22p17-22p17--17b(19)-|--r(17)-------|-----||
G|-------------------------|----------------------------|--------------|-----||
D|-------------------------|----------------------------|--------------|-----||
A|-------------------------|----------------------------|--------------|-----||
E|-------------------------|----------------------------|--------------|-----||

E|-----------------------|--------------------------|-------------------|-----||
B|-----------------------|--------------------------|-------------------|-----||
G|-----------------------|--------------------------|-7--7-7-7-7-7-7-7--|-7---||
D|--5---5--5--5--5--5--5-|--7---7--7--7--7--7--7----|-7--7-7-7-7-7-7-7--|-7---||
A|--5---5--5--5--5--5--5-|--7---7--7--7--7--7--7----|-5--5-5-5-5-5-5-5--|-5---||
E|--3---3--3--3--3--3--3-|--5---5--5--5--5--5--5----|-------------------|-----||

Outro Part 1 (Half Time)
E|-------------------|-----------------|--------------|------------------------|
B|-------------------|-----------------|--------------|------------------------|
G|-7-7-7-7-7--7---7--|-----------------|--------------|-7-7-7-7-7--7----7------|
D|-7-7-7-7-7--7---7--|-9-9-9-9-7-7-7-7-|-5--5--5--5-5-|-7-7-7-7-7--7----7------|
A|-5-5-5-5-5--5---5--|-9-9-9-9-7-7-7-7-|-5--5--5--5-5-|-5-5-5-5-5--5----5------|
E|-------------------|-7-7-7-7-5-5-5-5-|-3--3--3--3-3-|------------------------|

E|--------------------------|-----------------|------|-------------------------|
B|--------------------------|-----------------|------|-------------------------|
G|-7-7-7-7-7-7-7-7-7-7-7-7--|-------12-12--11-|-7----|-7-7-7-7-7-7-7-7-7-7-7-7-|
D|-7-7-7-7-7-7-7-7-7-7-7-7--|-9--9------------|------|-7-7-7-7-7-7-7-7-7-7-7-7-|
A|-5-5-5-5-5-5-5-5-5-5-5-5--|-------10-10---9-|-5----|-5-5-5-5-5-5-5-5-5-5-5-5-|
E|--------------------------|-7--7------------|------|-------------------------|
                                       
E|--------------------------|-----------------|--------------||
B|--------------------------|-----------------|--------------||
G|-7-7-7-7-7--7----7--------|-----------------|--------------||
D|-7-7-7-7-7--7----7--------|-9-9-9-9-7-7-7-7-|-5--5--5--5-5-||
A|-5-5-5-5-5--5----5--------|-9-9-9-9-7-7-7-7-|-5--5--5--5-5-||
E|--------------------------|-7-7-7-7-5-5-5-5-|-3--3--3--3-3-||

E|--------------------------|-----------------|--------------||
B|--------------------------|-----------------|--------------||
G|-7-7-7-7-7-7-7-7-7-7-7-7--|-------12-12--11-|-7------------||
D|-7-7-7-7-7-7-7-7-7-7-7-7--|-9--9------------|--------------||
A|-5-5-5-5-5-5-5-5-5-5-5-5--|-------10-10---9-|-5------------||
E|--------------------------|-7--7------------|--------------||

Outro Part 2 (Real Time)
E|------|------|------|------|------|------|------|------|------|
B|------|------|------|------|------|------|------|------|------|
G|------|------|------|------|------|------|------|------|-7----|
D|-12---|-11---|-9----|-7----|-5----|-9----|-5----|-7----|-7----|
A|------|------|------|------|------|------|------|------|-5----|
E|-10---|--9---|-7----|-5----|-3----|-7----|-3----|-5----|------|
 |      |      |      |      |      |      |      |      |      |
E|------|------|------|------|------|------|------|------|------|------|------|
B|------|------|------|------|------|------|------|------|------|------|------|
G|-7----|-9----|-12---|-11---|-12---|-7----|-12---|-9----|-11---|-9----|-7----|
D|------|------|------|------|------|------|------|------|------|------|------|
A|-5----|-7----|-10---|--9---|-10---|-5----|-10---|-7----|--9---|-7----|-5----|
E|------|------|------|------|------|------|------|------|------|------|------|

Comments about this tab

No comments/corrections found. Add your own

Complimentary Christian Ringtones
Dadamobile and CGR have teamed up to bring your favorite Christian artists right to your phone. Sign up today and get 10 complementary ringtones!
Tab Country
Did you know CGR has a sister site w/ country guitar tabs? Well we do! Its called Tab Country. It has a great archive with a lot of country tabs.
Rockin Tabs
Are you looking for a site that has rock guitar tabs? Then Rockintabs.com is the place for you. It is a budding site with many rock guitar tabs. Submit your tab today.
Tab Gallery
Tab Gallery has a compilation of christian, rock, and country tabs all in one place. Come visit us.