Guitar Tabs
song title    band name

Join Us Today!

Don't strum alone...
be a part of the largest online Christian music community. Browse thousands of guitar tabs and chat w/ musicians like yourself.


It's Free!

This tab has not yet been rated for accuracy.Sorry, but you must be logged in to rate this tab.
Click here to log-in, or you can click here to register.
(Registration is free)

All songs owned by corresponding publishing company. If you make copies of any song on this website, be sure to report your usage to CCLI.
-------------------------------------------------------------------------------
			 Something More - Hangnail
-------------------------------------------------------------------------------

By: Walker Walmus through the grace of God
	walkerw@evestmail.com
Copy Right Info:
( 1999 BEC Recordings All Rights reserved 
( 1999 Spinning Audio Vortex (BMI)/( 1999 Hangnail Music (BMI)

( = upstroke / = slide up \ = slide down p = pull off h = hammer on

Intro and lead for verses:
e|----------------------------------------------------------------------------|
B|----------------------------------------------------------------------------|
G|----------------------------------------------------------------------------|
D|-----7-5-7-7/8\7\0-----<7>-5-7-7/8\7\0-----7-5-7-7/8\7\0----<7>-5-7-7/8/10/0|
A|-5-5---------------5-5-----------------5-5---------------5-5----------------|
E|----------------------------------------------------------------------------|

e|----------------------------------------------------------------------------|
B|----------------------------------------------------------------------------|
G|----------------------------------------------------------------------------|
D|-----7-5-7-7/8\7\0-----<7>-5-7-7/8\7\0-----7-5-7-7/8\7\0----<7>-5-7-7-8-10-7|
A|-5-5---------------5-5-----------------5-5---------------5-5----------------|
E|----------------------------------------------------------------------------|

End of Intro   ( ( ( ( ( ( ( (
e|----------------------------------------------------------------------------|
B|----------------------------------------------------------------------------|
G|-7--6--4--6--4x4x4x4x4x4x6x6------------------------------------------------|
D|-7--6--4--6--4x4x4x4x4x4x6x6------------------------------------------------|
A|-5--4--2--4--2x2x2x2x2x2x4x4------------------------------------------------|
E|----------------------------------------------------------------------------|

Verse Rhythm Guitar is hard to hear but I think it is a combination of the
D bar chord and the 7/8\7\0, 7/8/10/0, and the 7 8 10 7 parts in the lead.
Something like this (play first to bars of the intro for the lead over this)
e|----------------------------------------------------------------------------|
B|----------------------------------------------------------------------------|
G|-77x77x77--7/8\7\0--77x77x77--7/8\7\0--77x77x77--7/8\7\0-77x77x77-7/8/10/0--|
D|-77x77x77-----------77x77x77-----------77x77x77----------77x77x77-----------|
A|-55x55x55-----------55x55x55-----------55x55x55----------55x55x55-----------|
E|----------------------------------------------------------------------------|

e|----------------------------------------------------------------------------|
B|----------------------------------------------------------------------------|
G|-77x77x77--7/8\7\0--77x77x77--7/8\7\0--77x77x77--7/8\7\0-77x77x77-7-8-10-7--|
D|-77x77x77-----------77x77x77-----------77x77x77----------77x77x77-----------|
A|-55x55x55-----------55x55x55-----------55x55x55----------55x55x55-----------|
E|----------------------------------------------------------------------------|

Chorus
e|----------------------------------------------------------------------------|
B|----------------------------------------------------------------------------|
G|-7--6--4--6--4-4-4-4-6-6------7-4-6-----------------------------------------|
D|-7--6--4--6--x-x-x-x-x-x------7-4-6-----------------------------------------|
A|-5--4--2--4--2-2-2-2-4-4-(X3)-5-2-4-----------------------------------------|
E|----------------------------------------------------------------------------|

Bridge 2:04
Gtr. 1
 |--------------------P.M.-----------------------------|
e|----------------------------------------------------------------------------|
B|----------------------------------------------------------------------------|
G|-77777777-6666-44-(x4)-44-66-77-77777777-6666-44-(x4)-6p4-6p4-6p4-6p4-7p6p4-|
D|----------------------------------------------------------------------------|
A|----------------------------------------------------------------------------|
E|----------------------------------------------------------------------------|

 |--------------------P.M.---------------------------------------|
e|----------------------------------------------------------------------------|
B|----------------------------------------------------------------------------|
G|-77777777-6666-44-(x4)-44-66-77--77777777-6666-44-(x4)--44-66-77------------|
D|----------------------------------------------------------------------------|
A|----------------------------------------------------------------------------|
E|----------------------------------------------------------------------------|

Gtr. 2
 |--------------------P.M.-----------------------------|
e|----------------------------------------------------------------------------|
B|----------------------------------------------------------------------------|
G|----------------------------------------------------------------------------|
D|----------------------------------------------------------------------------|
A|-55555555-4444-22-(x4)-22-44-55--55555555-4444-22-(x4)-(       REST       )-|
E|----------------------------------------------------------------------------|

 |--------------------P.M.---------------------------------------|
e|----------------------------------------------------------------------------|
B|----------------------------------------------------------------------------|
G|----------------------------------------------------------------------------|
D|----------------------------------------------------------------------------|
A|-55555555-4444-22-(x4)-22-44-55--55555555-4444-22-(x4)- 22-44-55------------|
E|----------------------------------------------------------------------------|
 
 2:34
e|---------------------------------------------------------------------------|
B|---------------------------------------------------------------------------|
G|--7-6-4-7-------7-7-6-4----------------------------------------------------|
D|--7-6-4-7-(x3)--7-7-6-4----------------------------------------------------|
A|--5-4-2-5-------5-5-4-2----------------------------------------------------|
E|---------------------------------------------------------------------------|

End Lead
e|----------------------------------------------------------------------------|
B|----------------------------------------------------------------------------|
G|----------------------------------------------------------------------------|
D|-----7p5-5-7-7/8\7\0-----<7>p5-5-7-7/8\7\0-----7p5-5-7-7/8\7\0--------------|
A|-5-5-----------------5-5-------------------5-5------------------------------|
E|----------------------------------------------------------------------------|

e|----------------------------------------------------------------------------|
B|----------------------------------------------------------------------------|
G|----------------------------------------------------------------------------|
D|-----<7>p5-5-7-7/8/10/0-----------------------------------------------------|
A|-5-5------------------------------------------------------------------------|
E|----------------------------------------------------------------------------|

End of Intro   ( ( ( ( ( ( ( (
e|----------------------------------------------------------------------------|
B|----------------------------------------------------------------------------|
G|-7--6--4--6--4x4x4x4x4x4x6x6------------------------------------------------|
D|-7--6--4--6--4x4x4x4x4x4x6x6------------------------------------------------|
A|-5--4--2--4--2x2x2x2x2x2x4x4------------------------------------------------|
E|----------------------------------------------------------------------------|

Comments about this tab

No comments/corrections found. Add your own

Complimentary Christian Ringtones
Dadamobile and CGR have teamed up to bring your favorite Christian artists right to your phone. Sign up today and get 10 complementary ringtones!
Tab Country
Did you know CGR has a sister site w/ country guitar tabs? Well we do! Its called Tab Country. It has a great archive with a lot of country tabs.
Rockin Tabs
Are you looking for a site that has rock guitar tabs? Then Rockintabs.com is the place for you. It is a budding site with many rock guitar tabs. Submit your tab today.
Tab Gallery
Tab Gallery has a compilation of christian, rock, and country tabs all in one place. Come visit us.