Guitar Tabs
song title    band name

Join Us Today!

Don't strum alone...
be a part of the largest online Christian music community. Browse thousands of guitar tabs and chat w/ musicians like yourself.


It's Free!

This tab has not yet been rated for accuracy.Sorry, but you must be logged in to rate this tab.
Click here to log-in, or you can click here to register.
(Registration is free)

All songs owned by corresponding publishing company. If you make copies of any song on this website, be sure to report your usage to CCLI.
Black Eyed Sceva 
Comte's Perspective

INTRO:
   Em                                       Dsus4       C2
|---2----2h3--3----3p2--2------2----5------5---3------------------|
|--0-0-0-----0-0-0-----0-0---0-----0-0---0------3----3----3-----3-|
|------------------------------------------------2--2----0--0--0--|
|-2---2----2----2-----2------2-----2------2-----------------------|
|----------------------------------------------0---0----3-----3---|
|-----------------------------------------------------------------|

Repeated verse pattern:
  Em         G2         C2                      Em7
|------3-------------------------------------------------------|
|----0-----0-----3----------3---------------------3-------3----|
|--------------0---0------0---0-----------------0---0----------|
|--2-----------------------------------------------------------|
|--------2---0--------0-3--------3-3p2-0--3p2---------0h2---2--|
|--------------------3------------------------0----------------|

(Verse patternŠ)
   I am not king
   Of your consciences
   I can't talk you
   Into believing God exists

    Em7   G   Em7   C2
Are we ca - pable
   Em7   G     Em7   C2
Of knowing something?

   Is knowledge proof?
   Is proof objective?
   Have you bought into
   Comte's perspective?

Beyond what we see,
beyond what we hear

   There's glory beyond compare
   Trust me, grace abounds
   As far as I can tell
                                   C2
   There is more heaven . . . than hell

CHORUS:
       Dsus     Em7  A7sus A7
Was it easier
     C2
When I knew less?
            Dsus Em7 A7sus A7
Now there's no ignorance
C2
In this place
Dsus         Em7     A7sus A7
God's word's a knife
C2
Penetrates bone
Dsus Em7  A7sus A7
Separates it
C2
From the marrow

(Verse patternŠ)
   Consider this:
   In the hereafter
   It won't be your truth nor mine
   But what's true that mattered

CHORUS

BRIDGE:
A7            C2 D   (x2)
   A7     A7sus     C2 D
As far as I can tell
A7       A7sus          C2   D
There is more heavenŠ
     A7  A7sus
Than hell

A7  A7sus (x2)
C2   D
A7  A7sus (x3)
C2

CHORUS

Comments about this tab

No comments/corrections found. Add your own

Complimentary Christian Ringtones
Dadamobile and CGR have teamed up to bring your favorite Christian artists right to your phone. Sign up today and get 10 complementary ringtones!
Tab Country
Did you know CGR has a sister site w/ country guitar tabs? Well we do! Its called Tab Country. It has a great archive with a lot of country tabs.
Rockin Tabs
Are you looking for a site that has rock guitar tabs? Then Rockintabs.com is the place for you. It is a budding site with many rock guitar tabs. Submit your tab today.
Tab Gallery
Tab Gallery has a compilation of christian, rock, and country tabs all in one place. Come visit us.