Guitar Tabs
song title    band name

Join Us Today!

Don't strum alone...
be a part of the largest online Christian music community. Browse thousands of guitar tabs and chat w/ musicians like yourself.


It's Free!

This tab has not yet been rated for accuracy.Sorry, but you must be logged in to rate this tab.
Click here to log-in, or you can click here to register.
(Registration is free)

All songs owned by corresponding publishing company. If you make copies of any song on this website, be sure to report your usage to CCLI.
Author/Artist: Denison Marrs
Title: From the Centre
Album: Holding Hands (@35,000 ft)
Transcribed by: Kyle Stedman
Email: kstedman@rollins.edu
(P) & © 1999 Platinum Entertainment, Inc.

I know the second guitar is always harmonizing with what
the first one, Eric’s, is doing, but this is just my shot at
getting the basics of the tune down.  Creative magic ought to
be used at one’s own risk.



Intro and verse—once verse starts just let mute the lower notes a bit and
let the high ones ring as much as before.


------------9-------|-----------10------|-----------10-------|
--------------------|-------------------|--------------------|
-------0------0----0|------0------0----0|------0-------0----0|
----11---11-----11--|---11---11-----11--|---11---11------11--|
-12-----------------|12-----------------|12------------------|
--------------------|-------------------|--------------------|
   
------------9-------|  I know that once the bass and drums kick in this 
--------------------|  doesn’t sound quite right, but it is—the bass is
-------0------0----0|  just implying different chords from the ones this
----11---11-----11--|  first guitar is playing—something like what follows, 
-12-----------------|  in its barest form.
--------------------|


-------------------------|
-------------------------|
-------------------------|
-------------------------|
-222/77777\555/99999-----|
-------------------------|


-----------------|-------------------------||----------------------------------
-----------------|---------10--10-10-1010--||----------------------------------
-7/9-9-9---9-9-99|12-12----11--11-11-1111--||-16-16---14--14-14-1414-----------
-----------------|-------------------------||----------------------------------
-5/7-7-7---7-7-77|10-10-----9---9--9--9-9--||-14-14---12--12-12-1212-----------
-0-0-0-0---0-0-00|-0--0-----0---0--0--0-0--||--0--0----0---0--0--0-0-----------
Loud part begins                             end fourth time with this 


------------------|------------------------||------------------|---------------
------------------|------------------------||------------------|---------------
-7-7-7-7-7-7-7-77-|-12-12---11--11-11-1111-||-9-9-9-9-9-9-9-99-|-7-7------7----
-7-7-7-7-7-7-7-77-|-12-12---12--12-12-1212-||-9-9-9-9-9-9-9-99-|-7-7------7----
-5-5-5-5-5-5-5-55-|-10-10----9---9--9--9-9-||-7-7-7-7-7-7-7-77-|-5-5------5----
-0-0-0-0-0-0-0-00-|--0--0----0---0--0--0-0-||-7-7-7-7-7-7-7-77-|-5-5------5----
Loud verse begins               fourth time play this instead 


Again, there’s much else going on here, but I’m convinced that the stuff I
have down is correct or nearly so, and yet there’s obviously some chords
being strummed along in the bassier regions (those notes that fill in the
intro section don’t sound half bad here, actually).



Bridge:
---------------------------------|--------------------------------------------
---------------------------------|--------------------------------------------
-----6-----6-----7-----7-----9---|-----4-----4-----5-----5-----7--------------
---7---7-----7-----7-----7-----7-|---5---5-----5-----5-----5-----5------------
-5-------5-----5-----5-----5-----|-3-------3-----3-----3-----3----------------
---------------------------------|--------------------------------------------
back and forth with this a few times.  Listen to the record.


And back to:

------------------|------------------------||------------------|---------------
------------------|------------------------||------------------|---------------
-7-7-7-7-7-7-7-77-|-12-12---11--11-11-1111-||-9-9-9-9-9-9-9-99-|-7-7------7----
-7-7-7-7-7-7-7-77-|-12-12---12--12-12-1212-||-9-9-9-9-9-9-9-99-|-7-7------7----
-5-5-5-5-5-5-5-55-|-10-10----9---9--9--9-9-||-7-7-7-7-7-7-7-77-|-5-5------5----
-0-0-0-0-0-0-0-00-|--0--0----0---0--0--0-0-||-7-7-7-7-7-7-7-77-|-5-5------5----
    fourth time end with this,


going straight into:
--------------------------|------------------|--------------------------------
--------------------------|------------------|--------------------------------
-11-11-11-/-14---14-14-14-|-7-7-7-7---7-7-77-|--------------------------------
-11-11-11-/-14---14-14-14-|-7-7-7-7---7-7-77-|--------------------------------
-9--9--9-/-12---12-12-12-|-5-5-5-5---5-5-55-|--------------------------------
-9--9--9-/-12---12-12-12-|-5-5-5-5---5-5-55-|--------------------------------


Email me with questions or comments: I’d love to get this pristine, but it
just ain’t happening right here, with all the background noise, etc.  I’m
believing that that just makes it more fun live—you get to have a whammy
with your own improv.  Peace of God.

Comments about this tab

No comments/corrections found. Add your own

Complimentary Christian Ringtones
Dadamobile and CGR have teamed up to bring your favorite Christian artists right to your phone. Sign up today and get 10 complementary ringtones!
Tab Country
Did you know CGR has a sister site w/ country guitar tabs? Well we do! Its called Tab Country. It has a great archive with a lot of country tabs.
Rockin Tabs
Are you looking for a site that has rock guitar tabs? Then Rockintabs.com is the place for you. It is a budding site with many rock guitar tabs. Submit your tab today.
Tab Gallery
Tab Gallery has a compilation of christian, rock, and country tabs all in one place. Come visit us.