Guitar Tabs
song title    band name

Join Us Today!

Don't strum alone...
be a part of the largest online Christian music community. Browse thousands of guitar tabs and chat w/ musicians like yourself.


It's Free!

Juliana Theory, The - To the Tune of 5000 Screaming Children

This tab has not yet been rated for accuracy.Sorry, but you must be logged in to rate this tab.
Click here to log-in, or you can click here to register.
(Registration is free)

All songs owned by corresponding publishing company. If you make copies of any song on this website, be sure to report your usage to CCLI.
To the Tune of 5000 Screaming Children
Juliana Theory (Brett Detar)
Copyright 2000 ? publishing (Songs From the Penalty Box 4)

To start off, this is in standard tuning (EADGBe)and is played on two
guitars (Maybe three or four for all I know). This tab is written for one.

Riff A
e-------------------------------------------
B-------------------------------------------
G-4-4-4-4/14-14-14-14--4-4-4-4/14-14-14-14-- Listen to song to catch how 
D------------------------------------------- many times it repeats.
A-2-2-2-2/12-12-12-12--2-2-2-2/12-12-12-12--
E-------------------------------------------

Okay, simple so far. Bass solos briefly.

Riff B
e-----------------------------|
B-----------------------------|
G-----14--9-------------14--9-| Meanwhile a clean guitar solos over this 
D--9----------9------9--------| lightly. Nice accent. Itís in the same mode
A-----12--7-------------12--7-| as ďSolo 1Ē below.
E--7----------7------7--------|

Riff C
e---------------------------|
B---------------------------|
G--7-7-7-7-6-6-----4-4-4-4--|
D--4-4-4-4------------------|
A--5-5-5-5-4-4-4-4-2-2-2-2--|
E--------------5-5----------|

Solo 1
e-----------------------------------------------------|
B--10--8--7-------------------10--8--7------7-7h8p7---|
G-----------7---6--7-6h7p6-------------7--9---------7-|
D--------------------------7--------------------------|
A-----------------------------------------------------|
E-----------------------------------------------------|

The rythmn guitar is hitting a B chord often at a choppy pace throughout
Then the drums.

Solo 2
e-----------------10-7--------------------------10-7------------|
B----------------------10-7-10b12--------------------10-7-10b12-|
G--9b11-9b11-9b11-----------------9b11-9b11-9b11----------------|
D---------------------------------------------------------------|
A---------------------------------------------------------------|
E---------------------------------------------------------------|

e--------------------10-7----------------------------------------|
B--10b12-10b12-10b12------10-7-10b12-10-10b12r10-7---------------|
G--------------------------------------------------9-7-9b10-7----|
D-------------------------------------------------------------9--|
A----------------------------------------------------------------|
E----------------------------------------------------------------|

Well, thatís it. Iím really not 100% sure about the solos. The second solo is
simply a B pentatonic scale, which gets bent like crazy. Questions, comments,
better versions are all welcome. Be nice. I havenít tabbed that much. 

Ryan (hierarchyofsnakes@yahoo.com)

Comments about this tab

No comments/corrections found. Add your own

Complimentary Christian Ringtones
Dadamobile and CGR have teamed up to bring your favorite Christian artists right to your phone. Sign up today and get 10 complementary ringtones!
Tab Country
Did you know CGR has a sister site w/ country guitar tabs? Well we do! Its called Tab Country. It has a great archive with a lot of country tabs.
Rockin Tabs
Are you looking for a site that has rock guitar tabs? Then Rockintabs.com is the place for you. It is a budding site with many rock guitar tabs. Submit your tab today.
Tab Gallery
Tab Gallery has a compilation of christian, rock, and country tabs all in one place. Come visit us.