Guitar Tabs
song title    band name

Join Us Today!

Don't strum alone...
be a part of the largest online Christian music community. Browse thousands of guitar tabs and chat w/ musicians like yourself.


It's Free!

Newsboys - Take Me To Your Leader

This tab has been rated a 5.00 out of 5 for accuracy. (3 votes)Sorry, but you must be logged in to rate this tab.
Click here to log-in, or you can click here to register.
(Registration is free)

All songs owned by corresponding publishing company. If you make copies of any song on this website, be sure to report your usage to CCLI.
Take Me To Your Leader
As Recorded by Newsboys
CD: Take Me To Your Leader
Music: Peter Furler/Lyrics: Steve Taylor
1996 Dawn Treader Music (SESAC)
Transcribed by Bryan Fakes MtnDewer@usit.net

INTRO (Play two times - Second time play Bar 4 two times)
    G         C7      G         C7      G         C7      F         G
 |-----------------|-----------------|-----------------|---------------------|
T|-----------------|-----------------|-----------------|---------------------|
A|------------3--3-|------------3--3-|------------3--3-|------------0--0-----|
B|------------2--2-|------------2--2-|------------2--2-|------------0--0-----|
 |---2--2--2--3--3-|---2--2--2--3--3-|---2--2--2--3--3-|---0--0--0--2--2-----|
 |-/3--3--3--------|--3--3--3--------|--3--3--3--------|--1--1--1---3--3-----|

VERSE ONE (Guitar follows melody with wah wah effect and distortion)
  Cm                                       Bb         F
 |----------------------------------------|----------------------------------|
T|-4-4-4----4--4-4--xx--4--------xx---4-4-|-333-----3---------------------3--|
A|----------------------------------------|--------------5--5-5--5----5------|
B|----------------------------------------|----------------------------------|
 |----------------------------------------|----------------------------------|
 |----------------------------------------|----------------------------------|

   Cm                                 Bb                   F   (etc.)
 |----------------------------------------|----------------------------------|
T|-4-xx-4----xx-4------xx----/6--\4----3--|-xx-3-----------------------------|
A|----------------------------------------|------------5--5--------etc.------|
B|----------------------------------------|----------------------------------|
 |----------------------------------------|----------------------------------|
 |----------------------------------------|----------------------------------|
   

CHORUS:
G  C  C       
G  C   
C  G

C  C  F   G         
F  G


INTERLUDE
   B                    B            A
 |-7\-------|---------|-7--7----x----5---xx---5--|-7--7----x----5---xx---5--|
T|-7\-------|---------|-7--7----x----5---xx---5--|-7--7----x----5---xx---5--|
A|-8\-------|---------|-8--8----x----6---xx---6--|-8--8----x----6---xx---6--|
B|-9\-------|---------|-9--9----x----7---xx---7--|-9--9----x----7---xx---7--|
 |-9\-------|---------|-9--9----x----7---xx---7--|-9--9----x----7---xx---7--|
 |-7\-------|---------|-7--7----x----5---xx---5--|-7--7----x----5---xx---5--|

 |-7--7----x----5---xx---5--|-7--7----x----5---xx---5--|-7\------------------|
T|-7--7----x----5---xx---5--|-7--7----x----5---xx---5--|-7\------------------|
A|-8--8----x----6---xx---6--|-8--8----x----6---xx---6--|-8\------------------|
B|-9--9----x----7---xx---7--|-9--9----x----7---xx---7--|-9\------------------|
 |-9--9----x----7---xx---7--|-9--9----x----7---xx---7--|-9\------------------|
 |-7--7----x----5---xx---5--|-7--7----x----5---xx---5--|-7\------------------|


OUTRO CHORUS

A   D   D          
A   D   D            
A   D   D           
G   A   A             
A   D   D   A   D   
D   A
G   A   A
G   A   A    
G   A   A

Comments about this tab

Jimmyness - 2006-04-29

hey I think that the last chorus there is wrong I'm not sure what the chords are though


Jimmyness - 2006-04-30

eyah I'm not completly sure the D is right there so if anyone could get that dat would be kool


Add a comment/correction

Complimentary Christian Ringtones
Dadamobile and CGR have teamed up to bring your favorite Christian artists right to your phone. Sign up today and get 10 complementary ringtones!
Tab Country
Did you know CGR has a sister site w/ country guitar tabs? Well we do! Its called Tab Country. It has a great archive with a lot of country tabs.
Rockin Tabs
Are you looking for a site that has rock guitar tabs? Then Rockintabs.com is the place for you. It is a budding site with many rock guitar tabs. Submit your tab today.
Tab Gallery
Tab Gallery has a compilation of christian, rock, and country tabs all in one place. Come visit us.