Guitar Tabs
song title    band name

Join Us Today!

Don't strum alone...
be a part of the largest online Christian music community. Browse thousands of guitar tabs and chat w/ musicians like yourself.


It's Free!

Newsboys - Reality

This tab has been rated a 0.33 out of 5 for accuracy. (3 votes)Sorry, but you must be logged in to rate this tab.
Click here to log-in, or you can click here to register.
(Registration is free)

All songs owned by corresponding publishing company. If you make copies of any song on this website, be sure to report your usage to CCLI.
Song: Reality
Artist: Newsboys
CD: Take Me To Your Leader
(C)&(P) 1996 Star Song Communications
Tabbed by: ggh3@hotmail.com

There isn't much guitar, if any, in this song. I wrote out the organ intro
and instrumental break for guitar, the rest is just chords.

Intro: (chords are G  C  F, same as chorus)
    1   2   3 + 4 + | 1   2   3 + 4 + | 1   2   3 + 4 + | 1   2   3   4   |

e-----------0-0-----|---------3-3-----|---------0-0-----|-----------------|
b---3-------------1-|---------------3-|---------------1-|-----------------|
G---0-------0-0-----|---------------0-|---------0-0-----|-----------------|
D-----------------3-|---------3-3-----|---------------3-|-----------------|
A-------------------|-----------------|-----------------|-----------------|
E-------------------|-----------------|-----------------|-----------------|
    G       C     F                 G           C     F
(play 2x)

Verse 1:
G
F   C
G
F   C


Prechorus:

F
F
G
G

Chorus: (you can also play the intro here)

G
C   F
G
C   F
G   C    F
G
C   F

G (hold)


Instrumental break: (play 2x)
C (hold) (you can play the organ part while holding an open C chord)

e---------------0---0---1-1----0---0------------
b---1----3-3---------------------------3-3----1-
G--(0)------------------------------------------
D--(2)------------------------------------------
A--(3)------------------------------------------
E-----------------------------------------------

Bridge:
F
F
G
G
F
F
G
G

End:
G
C  F
G

Comments about this tab

No comments/corrections found. Add your own

Complimentary Christian Ringtones
Dadamobile and CGR have teamed up to bring your favorite Christian artists right to your phone. Sign up today and get 10 complementary ringtones!
Tab Country
Did you know CGR has a sister site w/ country guitar tabs? Well we do! Its called Tab Country. It has a great archive with a lot of country tabs.
Rockin Tabs
Are you looking for a site that has rock guitar tabs? Then Rockintabs.com is the place for you. It is a budding site with many rock guitar tabs. Submit your tab today.
Tab Gallery
Tab Gallery has a compilation of christian, rock, and country tabs all in one place. Come visit us.