Guitar Tabs
song title    band name

Join Us Today!

Don't strum alone...
be a part of the largest online Christian music community. Browse thousands of guitar tabs and chat w/ musicians like yourself.


It's Free!

Newsboys - Love Liberty Disco

This tab has been rated a 4.00 out of 5 for accuracy. (1 vote)Sorry, but you must be logged in to rate this tab.
Click here to log-in, or you can click here to register.
(Registration is free)

All songs owned by corresponding publishing company. If you make copies of any song on this website, be sure to report your usage to CCLI.
Song: Love Liberty Disco
Artist: Newsboys
Album: Love Liberty Disco
Tabbed by: Anonymous (This is original, nothing has been copied from
any other tablature)

Capo on 2nd fret
Play with a higher tone and heavy distortion. A Gibson is nice for this.


Intro Tab 1: Play three times
------------------------------------
-----0-0---0-----0-0---0------------
---2-----------2--------------------
---------4---4-------4---4----------
------------------------------------
------------------------------------

and then...

Intro Tab 2: Play after Tab 1 is played three times
------------------------------------
-----0-0---0-----0-0---0---0-6------
---2-----------2--------------------
---------4---4-------4---4----------
------------------------------------
------------------------------------


Verse 1
First play riff 1, then riff 2, then riff 1, and riff 3, riff 2,
riff 1, riff 2, and finally riff 3



Verse Riff 1:

---2--------------------------------
---3-3s-0---------------------------
-------------------2----------------
----------0--0-0-2---4-----2--------
-----------------------0-2----------
------------------------------------


Verse Riff 2

---2--------------------------------
---3-3s-0---------------------------
-------------------2----------------
----------0--0-0-2---4-4-4-4--------
------------------------------------
------------------------------------





Verse Riff 3

---3---------------------------------
---2-3s-0----------------------------
-------------------2-----------------
----------0--0-0-2---4--2-0----------
----------------------------2--------
------------------------------2------


Chorus 1 and 2:

I'm not sure exactly how to play it, but the 
cords seem to be D and G, and are played 4 times each.


Verse 2:
Play riff 1 twice, riff 2, riff 1 twice, then riff 3


CHORUS 1/2


Bridge: Variation of Intro, play 8 times

Bridge Riff (3rd and 8th times are different):
                       | (Ending of 3rd
                       | and 8th time)
-----------------------|------------
-----0-0--0-----0------|------------
---2----------2--------|------------
------------4----------|---4-0------
-----------------------|------------
-----------------------|------------


END CHORUS:

End Chorus Riff:
Play until End

---5-5--5--5-5--3-3--------3--3-3--3
---3-3--3--3-3--3-3--0-2-3-3--3-3--3
------------------------------------
------------------------------------
------------------------------------
------------------------------------
------------------------------------




And that's the best I have so far. I'm not sure
about the 2-3 cord in the verses, though.

Comments about this tab

No comments/corrections found. Add your own

Complimentary Christian Ringtones
Dadamobile and CGR have teamed up to bring your favorite Christian artists right to your phone. Sign up today and get 10 complementary ringtones!
Tab Country
Did you know CGR has a sister site w/ country guitar tabs? Well we do! Its called Tab Country. It has a great archive with a lot of country tabs.
Rockin Tabs
Are you looking for a site that has rock guitar tabs? Then Rockintabs.com is the place for you. It is a budding site with many rock guitar tabs. Submit your tab today.
Tab Gallery
Tab Gallery has a compilation of christian, rock, and country tabs all in one place. Come visit us.