Guitar Tabs
song title    band name

Join Us Today!

Don't strum alone...
be a part of the largest online Christian music community. Browse thousands of guitar tabs and chat w/ musicians like yourself.


It's Free!

Newsboys - Breakfast

This tab has been rated a 4.87 out of 5 for accuracy. (30 votes)Sorry, but you must be logged in to rate this tab.
Click here to log-in, or you can click here to register.
(Registration is free)

All songs owned by corresponding publishing company. If you make copies of any song on this website, be sure to report your usage to CCLI.
__________________________________________________________
song--Breakfast
artist--Newsboys
album--Take Me To Your Leader
tabbed by-- dan Jepson: jepsonfamily@linkport.com
__________________________________________________________
Intro:


e|------------------------------------------------|
b|------------------------------------------------|
g|------------------------------------------------|
d|-------------9---9---9---/-14-14-14-\-----------|
a|-----------7---7---7---7-/-12-12-12-\-----------|
e|------------------------------------------------|
(play 4x)


Verse:


(part 1)
e|------------------------------------------------|
b|------------------------------------------------|
g|------------------------------------------------|
d|-------6--6--6--6---6-/--9--9-\--4--4---4-/-----|
a|------4--4--4--4--4---/-7--7--\-2--2--2---/-----|
e|------------------------------------------------|
(play 4x)


(part 2)
e|------------------------------------------------|
b|------------------------------------------------|
g|------------------------------------------------|
d|--11--11--11--11---11-\--9--9-/---14---14----14-|
a|-9---9---9---9---9----\-7--7--/-12---12---12----|
e|------------------------------------------------|
(play 4x)


Chorus:


     D    A         Gbm  A         D    A     E
e|----------------------------------------------------------------|
b|----------------------------------------------------------------|
g|---7-7--6--6-6-6--2-2--6--6-6-6--7-7--6--6--1-1--1-1-1-1-1-1-1--|
d|---7-7--7--7-7-7--4-4--7--7-7-7--7-7--7--7--2-2--2-2-2-2-2-2-2--|
a|---5-5--7--7-7-7--4-4--7--7-7-7--5-5--7--7--2-2--2-2-2-2-2-2-2--|
e|---5-5--5--5-5-5--2-2--5--5-5-5--5-5--5--5--0-0--0-0-0-0-0-0-0--|
(play 2x)



Interlude:


(during whistling: play part "1" 2x, then play chorus)


Outro:


(play chorus a bunch of times)

Alternate to chorus corrected by Nina Rife :


---2--0---------------------------------2--0--------0--0--|
--------2-------------------2--4--2--4--------2-----------|
----------4--2-----2--4--2-----------------------2--------|
----------------------------------------------------------|
----------------------------------------------------------|
----------------------------------------------------------|


------0--2--0--------------------------------2--0--------0--0--|
---2-----------2-----------------------------------2-----------|
------------------4--2-----------2--4--2--4-----------2--------|
------------------------2--4--2--------------------------------|
---------------------------------------------------------------|
---------------------------------------------------------------|

Comments about this tab

unknown - 2004-05-19

For the intro, they play it like this. I saw it one concert footage. It sounds exactly the same, but it is easier to play.
e|------------------------------------------------|
b|------------------------------------------------|
g|----------------------------9----9---------------|
d|-------------9---9---9----7---7-----------------|
a|-----------7---7---7---------------------------|
e|------------------------------------------------|
(play 4x)



lacrosseboyoo7 - 2005-04-12

i think the second part to each tabis wrong. just skip it


lacrosseboyoo7 - 2005-04-13

ifajsadfijsadk sdfsadf


jamforchrist123 - 2005-04-16

What Is This? :ifajsadfijsadk sdfsadf


jjones - 2005-04-25

who used my username? i'm not the one who just corrected that tab.


idaman1111 - 2005-05-03

i didnt correct this tab sum1 used my name


kronoseal - 2005-06-04

woah, i think theres somethin wrong, like everyone who veiws this tab see's their name as the first post, cause of the two post above me, and that it is the same for me


I am here - 2005-06-04

That is the same for me
Whoa, that is weird
I was very confused at first


Georgenewton - 2005-07-07

YEa weird


3rd Bassman - 2005-08-12

weird-O


radical_neard - 2005-11-18

u rock!, i played this and it sounds great i gave it a 5.0!!!!!!!!!!


JoeSD - 2006-01-29

This tab is completly right, except for the chours, It should go D,A,E throught the whole chours not a Gbm. Great job on this!!!


JoeSD - 2006-01-29

Also play the chorus is bar chords they sound better.


Brooke4Jesus - 2006-04-12

This song is very accurate.. I did try the intro switch but it didnt sound very good so I went back to the 797979 12141214 and that sounded good. I played these tabs with the song and they were right on! Way to go!


waddles - 2006-05-18

Great song!!! I think u did alright tabbing it...
Rock on!


Relient Kenny - 2006-06-24

An easier way to play it other than unknown's is...

|----------------------------------
|----------------------------------
|---4---4---4/------9---9---9-----
|-2---2---2---2/------7---7-------
|----------------------------------
|----------------------------------
I found it out accidentally one day. XD It's awesome, though. It sounds exactly the same as Unknown's. Enjoy. ^_^ Arigatou and God bless.


Add a comment/correction

Complimentary Christian Ringtones
Dadamobile and CGR have teamed up to bring your favorite Christian artists right to your phone. Sign up today and get 10 complementary ringtones!
Tab Country
Did you know CGR has a sister site w/ country guitar tabs? Well we do! Its called Tab Country. It has a great archive with a lot of country tabs.
Rockin Tabs
Are you looking for a site that has rock guitar tabs? Then Rockintabs.com is the place for you. It is a budding site with many rock guitar tabs. Submit your tab today.
Tab Gallery
Tab Gallery has a compilation of christian, rock, and country tabs all in one place. Come visit us.