Guitar Tabs
song title    band name

Join Us Today!

Don't strum alone...
be a part of the largest online Christian music community. Browse thousands of guitar tabs and chat w/ musicians like yourself.


It's Free!

Newsboys - Breakfast

This tab has been rated a 2.83 out of 5 for accuracy. (6 votes)Sorry, but you must be logged in to rate this tab.
Click here to log-in, or you can click here to register.
(Registration is free)

All songs owned by corresponding publishing company. If you make copies of any song on this website, be sure to report your usage to CCLI.
Newsboys
Breakfast
Copyright 1996 Star Song Communications
Written by the Newsboys
Transcribed by Jay Mallison 

Notes: First of all if I took the time to tab all of this out it would
       take forever so I will just tab a bit to give you an idea of
       how this works. Most of this song is just played by plucking
       two strings over and over. You just have to slide your fingers
       up and down the strings. On the intro I wrote the tab out, but
       on the verse parts I just wrote the notes once and gave you
       the words to see when to change the strings.

Intro: Tab:
  D:----------------------:
  A:---14--14--14--17--17-:  4x
  E:-12--12--12--12--15---:

Verse: Part 1:
D:----------------------------------------------------------------:
A:-11------------------------------14----------9------------------: 
E:-9-------------------------------12----------7------------------:

Verse: Part 2:
D:----------------------------------------------:
A:-16------------------------------14--------17-:
E:-14------------------------------12--------15-:

Chorus:
D5  A5  F#5  A5
D5  A5  E5
D5  A5  F#5  A5
D5  A5  E5

(Verse)
(Chorus)

Whistling: Part 1:
  Same as intro

Whistling: Part 2:
  Same as chorus

(Chorus)

Comments about this tab

inhimalways - 2006-01-25

hey ur intro is off heres how it sounded to me:
E------------------------------------------
A--7---7---7---7-----12----12----12----12--
D---9---9---9---9------14----14----14----14
G------------------------------------------
B------------------------------------------
e------------------------------------------
this is my first actual tab on a computer to if it looks bad sorry


inhimalways - 2006-01-25

E--------------------
A-7--7--7--7---12--12 (x4)
D--9--9--9--9--14--14 (x4)
G--------------------
B--------------------
e--------------------

Sorry, there it is the intro


professor_juan - 2006-04-10

Good job, mate, but it actually goes like this:

E--------------------
A-7--7--7---12--12 (x4)
D--9--9--9---14--14 (x4)
G--------------------
B--------------------
e--------------------

one less 7--9 than what you had, but otherwise guite well done.


Add a comment/correction

Complimentary Christian Ringtones
Dadamobile and CGR have teamed up to bring your favorite Christian artists right to your phone. Sign up today and get 10 complementary ringtones!
Tab Country
Did you know CGR has a sister site w/ country guitar tabs? Well we do! Its called Tab Country. It has a great archive with a lot of country tabs.
Rockin Tabs
Are you looking for a site that has rock guitar tabs? Then Rockintabs.com is the place for you. It is a budding site with many rock guitar tabs. Submit your tab today.
Tab Gallery
Tab Gallery has a compilation of christian, rock, and country tabs all in one place. Come visit us.