Guitar Tabs
song title    band name

Join Us Today!

Don't strum alone...
be a part of the largest online Christian music community. Browse thousands of guitar tabs and chat w/ musicians like yourself.


It's Free!

MxPx - Downfall of Western Civilization, The

This tab has been rated a 5.00 out of 5 for accuracy. (1 vote)Sorry, but you must be logged in to rate this tab.
Click here to log-in, or you can click here to register.
(Registration is free)

All songs owned by corresponding publishing company. If you make copies of any song on this website, be sure to report your usage to CCLI.
****************************************************************
* Song: The Downfall of Western Civilization                   *
*                                                              *
* Written by: Mike Herrera                                     *
* Performed by: MxPx                                           *
* CD: Slowly Going the Way of the Buffalo - June 16, 1998      *
* Transcribed by: Darryl Voss(GuitarBoy2@aol.com)              *
****************************************************************

   e       f       D       C       g       F       G
|---------------------------------------------------------|
|---------------------------------------------------------|
|--9------10-------7--------------12----------------------|
|--9------10-------7-------5------12-------3-------5------|
|--7-------8-------5-------5------10-------3-------5------|
|--------------------------3---------------1-------3------|

Intro: f-e-D-C-D-f-e-g

Guitar 1:C-C-C-C-C-C-C-C-C-C-C

Guitar 2:  G-F-C-C-G-F-C-C-G-F


VERSE 1

C           F 
What do you call yourself?

G            C
What did you call me?   4 x's


CHORUS

C
Excuse me but you don't know me

F                G
And I sure don't know you neither

C
Excuse me but you don't know me

F                G
And I sure don't know you neither


VERSE 1

C           F
What do you call yourself?

G            C
What did you call me?    4 x's


VERSE 2                                     |-----------|
                                            |--6^-4^----|
C               F         G       Guitar 1: |--------5--|
Who are you and where did you go?           |-----------|
                                            |-----------|
C                      F    G          C    |-----------|
You think you know but you, just don't know   
                                            
SOLO(not very accurate):
|--8-8-8-8-8-8-8-8-8-8-8-8-8-8-8-8-8-8-8-8-8-8--8^-------------|
|--8-8-8-8-8-8-8-8-8-8-8-8-8-8-8-8-8-8-8-8-8-8--------4--------|
|---------------------------------------------------5-5-5------|
|--------------------------------------------------------------|
|--------------------------------------------------------------|
|--------------------------------------------------------------|

|--6-6-6-6-6-6-6---------|
|--8-8-8-8-8-8-8-6/4-----|
|--------------------5^--|
|------------------------|
|------------------------|
|------------------------|


CHORUS

C                              G/F
Excuse me but you don't know me

                 F/G             G-G-G-C
And I sure don't know you neither

C                              G/F
Excuse me but you don't know me

                 F/G             G-G-G-C
And I sure don't know you neither

C                              G
Excuse me but you don't know me

                 F
And I sure don't know you neither

C                              G
Excuse me but you don't know me

                 F
And I sure don't know you neither

C-F-G-C-C-F-G-C-C    2 x's

Guitar 1:
|-----8----8----8----8----8--8-8-8-8-8-8-8-8-8-10-10-10-10--|
|----------------------------8-6-6-6-6-6-6-6-6--8--8--8--8--|
|--8h9--8h9--8h9--8h9--8h9----------------------------------|
|-----------------------------------------------------------|
|-----------------------------------------------------------|
|-----------------------------------------------------------|

Guitar 2:

   C                           F     F F   F    G        G

|--10-10-10-10-----8----8----8----8----8-8-8-8-8-8-8-8-8-8--|
|---8--8--8--8--8h9--8h9--8h9--8h9--8h9--8-6-6-6-6-6-6-6-6--|
|-----------------------------------------------------------|
|-----------------------------------------------------------|
|-----------------------------------------------------------|
|-----------------------------------------------------------|

    G     G     C                          F     F F   F


|--10-10-10-10-10-10-10-10-8--|
|---8--8--8--8--8--8--8--8-6--|
|-----------------------------|
|-----------------------------|
|-----------------------------|
|-----------------------------|

    G        G  G     G    C

Comments about this tab

No comments/corrections found. Add your own

Complimentary Christian Ringtones
Dadamobile and CGR have teamed up to bring your favorite Christian artists right to your phone. Sign up today and get 10 complementary ringtones!
Tab Country
Did you know CGR has a sister site w/ country guitar tabs? Well we do! Its called Tab Country. It has a great archive with a lot of country tabs.
Rockin Tabs
Are you looking for a site that has rock guitar tabs? Then Rockintabs.com is the place for you. It is a budding site with many rock guitar tabs. Submit your tab today.
Tab Gallery
Tab Gallery has a compilation of christian, rock, and country tabs all in one place. Come visit us.