Guitar Tabs
song title    band name

Join Us Today!

Don't strum alone...
be a part of the largest online Christian music community. Browse thousands of guitar tabs and chat w/ musicians like yourself.


It's Free!

MxPx - Teenage Politics

This tab has not yet been rated for accuracy.Sorry, but you must be logged in to rate this tab.
Click here to log-in, or you can click here to register.
(Registration is free)

All songs owned by corresponding publishing company. If you make copies of any song on this website, be sure to report your usage to CCLI.
SONG:              Teenage Politics
ARTIST:            MxPx
ALBUM:             Teenage Politics 
LYRICS WRITTEN BY: Mike Herrera
MUSIC WRITTEN BY:  MxPx     
TABBED BY:         (miker@blvl.igs.net) Mike Rose


=============================================================

Intro: X2
-------
e|------------------------|------------------------|        
B|------------------------|------------------------|
G|--------------8--7--5/7-|--------------8--7--5/7-|
D|-8--8--8-8-8--8--7--5/7-|-5--5--5-5-5--8--7--5/7-|                                  
A|-8--8--8-8-8--6--5--3/5-|-5--5--5-5-5--6--5--3/5-|
E|-6--0--6-6-6------------|-3--0--3-3-3------------|


e|------------------------|-------------------------------|
B|------------------------|-------------------------------|
G|-5--5--5-5-5--8--7--5/7-|--------------8--7--10--10-10--|
D|-5--5--5-5-5--8--7--5/7-|-3--0--3-3-3--8--7--10--10-10--|
A|-3--0--3-3-3--6--5--3/5-|-3--0--3-3-3--6--5--8---8--8---|
E|------------------------|-1--0--1-1-1-------------------|

=============================================================================

verse:
-------

e|---------------------------|---------------------------|
B|---------------------------|---------------------------|
G|-3--3--3-3-3--3--3--3-3-3--|---------------------------|
D|-3--3--3-3-3--3--3--3-3-3--|-5--5--5-5-5--5--5--5-5-5--|
A|-1--1--1-1-1--1--1--1-1-1--|-5--5--5-5-5--5--5--5-5-5--|
E|---------------------------|-3--3--3-3-3--3--3--3-3-3--|
  no  i'm  not    mad      but i think they forget


e|---------------------------|---------------------------|
B|---------------------------|---------------------------|
G|-5--5--5-5-5--5--5--5-5-5--|---------------------------|
D|-5--5--5-5-5--5--5--5-5-5--|-3--3--3-3-3--3--3--3-3-3--|
A|-3--3--3-3-3--3--3--3-3-3--|-3--3--3-3-3--3--3--3-3-3--|
E|---------------------------|-1--1--1-1-1--1--1--1-1-1--|
  what it's like and how    hard it is to be a teenager


e|---------------------------|---------------------------|
B|---------------------------|---------------------------|
G|-3--3--3-3-3--3--3--3-3-3--|---------------------------|
D|-3--3--3-3-3--3--3--3-3-3--|-5--5--5-5-5--5--5--5-5-5--|
A|-1--1--1-1-1--1--1--1-1-1--|-5--5--5-5-5--5--5--5-5-5--|
E|---------------------------|-3--3--3-3-3--3--3--3-3-3--|
  this is a new day and age     we read a different book


e|---------------------------|---------------------------|
B|---------------------------|---------------------------|
G|-5--5--5-5-5--5--5--5-5-5--|---------------------------|
D|-5--5--5-5-5--5--5--5-5-5--|-3--3--3-3-3--3--3--3-3-3--|
A|-3--3--3-3-3--3--3--3-3-3--|-3--3--3-3-3--3--3--3-3-3--|
E|---------------------------|-1--1--1-1-1--1--1--1-1-1--|
  here elvis ain't the rage     and polyester ain't the 
  


e|------------------------------------------------------|  
B|------------------------------------------------------|
G|-3-3--x-x-x--3--3-3--x-x-x-x--3-3--x-x-x--3--3-3--3-3-|
D|-3-3--x-x-x--3--3-3--x-x-x-x--3-3--x-x-x--3--3-3--3-3-|
A|-1-1--x-x-x--1--1-1--x-x-x-x--1-1--x-x-x--1--1-1--0-0-|
E|------------------------------------------------------|
  look



e|---------------------------|---------------------------|
B|---------------------------|---------------------------|
G|-3--3--3-3-3--3--3--3-3-3--|---------------------------|
D|-3--3--3-3-3--3--3--3-3-3--|-5--5--5-5-5--5--5--5-5-5--|
A|-1--1--1-1-1--1--1--1-1-1--|-5--5--5-5-5--5--5--5-5-5--|
E|---------------------------|-3--3--3-3-3--3--3--3-3-3--|
  and will we change at all          when we get old?



e|---------------------------|---------------------------|
B|---------------------------|---------------------------|
G|-5--5--5-5-5--5--5--5-5-5--|---------------------------|
D|-5--5--5-5-5--5--5--5-5-5--|-3--3--3-3-3--3--3--3-3-3--|
A|-3--3--3-3-3--3--3--3-3-3--|-3--3--3-3-3--3--3--3-3-3--|
E|---------------------------|-1--1--1-1-1--1--1--1-1-1--|
  or will we be the same?       never do what were told


e|---------------------------|---------------------------|
B|---------------------------|---------------------------|
G|-3--3--3-3-3--3--3--3-3-3--|---------------------------|
D|-3--3--3-3-3--3--3--3-3-3--|-5--5--5-5-5--5--5--5-5-5--|
A|-1--1--1-1-1--1--1--1-1-1--|-5--5--5-5-5--5--5--5-5-5--|
E|---------------------------|-3--3--3-3-3--3--3--3-3-3--|
  well that depends on you  re you doing the right thing?



e|---------------------------|---------------------------|
B|---------------------------|---------------------------|
G|-5--5--5-5-5--5--5--5-5-5--|---------------------------|
D|-5--5--5-5-5--5--5--5-5-5--|-3--3--3-3-3--3--3--3-3-3--|
A|-3--3--3-3-3--3--3--3-3-3--|-3--3--3-3-3--3--3--3-3-3--|
E|---------------------------|-1--1--1-1-1--1--1--1-1-1--|
  it's not about control      it's about you and me and 
  


e|------------------------------------------------------|  
B|------------------------------------------------------|
G|-3-3--x-x-x--3--3-3--x-x-x-x--3-3--x-x-x--3--3-3--3-3-|
D|-3-3--x-x-x--3--3-3--x-x-x-x--3-3--x-x-x--3--3-3--3-3-|
A|-1-1--x-x-x--1--1-1--x-x-x-x--1-1--x-x-x--1--1-1--0-0-|
E|------------------------------------------------------|
  understanding

============================================================================

chourus:
--------

e|-------------------------------|-------------------------------|
B|-------------------------------|-------------------------------|
G|-5--5--5-5-5---5--5--5--5-5-5-5|-------------------------------|
D|-5--5--5-5-5---5--5--5--5-5-5-5|-3--3--3-3-3--3--3--3--3-3-----|
A|-3--3--3-3-3---3--3--3--3-3-3-3|-3--3--3-3-3--3--3--3--3-3-----|
E|-------------------------------|-1--1--1-1-1--1--1--1--1-1-----|
                 teenage politics    it's too confusing


e|-------------------------------|-------------------------------|
B|-------------------------------|-------------------------------|
G|-5--5--5-5-5---5--5--5--5-5-5-5|-------------------------------|
D|-5--5--5-5-5---5--5--5--5-5-5-5|-3--3--3-3-3--3--3--3--3-3-----|
A|-3--3--3-3-3---3--3--3--3-3-3-3|-3--3--3-3-3--3--3--3--3-3-----|
E|-------------------------------|-1--1--1-1-1--1--1--1--1-1-----|
                 politics shmolitics      it's too confusing


e|-------------------------------|-------------------------------|
B|-------------------------------|-------------------------------|
G|-5--5--5-5-5---5--5--5--5-5-5-5|-------------------------------|
D|-5--5--5-5-5---5--5--5--5-5-5-5|-3--3--3-3-3--3--3--3--3-3-----|
A|-3--3--3-3-3---3--3--3--3-3-3-3|-3--3--3-3-3--3--3--3--3-3-----|
E|-------------------------------|-1--1--1-1-1--1--1--1--1-1-----|
                                 is it time again to disagree



e|-------------------------------|-------------------------------|
B|-------------------------------|-------------------------------|
G|-5--5--5-5-5---5--5--5--5-5-5-5|-------------------------------|
D|-5--5--5-5-5---5--5--5--5-5-5-5|-3--3--3-3-3--3--3--3--3-3-----|
A|-3--3--3-3-3---3--3--3--3-3-3-3|-3--3--3-3-3--3--3--3--3-3-----|
E|-------------------------------|-1--1--1-1-1--1--1--1--1-1-----|
  about anything, everything and what's on tv

============================================================================
repeat intro X2
---------------
============================================================================

verse:
-------

e|---------------------------|---------------------------|
B|---------------------------|---------------------------|
G|-3--3--3-3-3--3--3--3-3-3--|---------------------------|
D|-3--3--3-3-3--3--3--3-3-3--|-5--5--5-5-5--5--5--5-5-5--|
A|-1--1--1-1-1--1--1--1-1-1--|-5--5--5-5-5--5--5--5-5-5--|
E|---------------------------|-3--3--3-3-3--3--3--3-3-3--|
        it's a vicious circle        never ending


e|---------------------------|---------------------------|
B|---------------------------|---------------------------|
G|-5--5--5-5-5--5--5--5-5-5--|---------------------------|
D|-5--5--5-5-5--5--5--5-5-5--|-3--3--3-3-3--3--3--3-3-3--|
A|-3--3--3-3-3--3--3--3-3-3--|-3--3--3-3-3--3--3--3-3-3--|
E|---------------------------|-1--1--1-1-1--1--1--1-1-1--|
         a linear equation           worldy extending


e|---------------------------|---------------------------|
B|---------------------------|---------------------------|
G|-3--3--3-3-3--3--3--3-3-3--|---------------------------|
D|-3--3--3-3-3--3--3--3-3-3--|-5--5--5-5-5--5--5--5-5-5--|
A|-1--1--1-1-1--1--1--1-1-1--|-5--5--5-5-5--5--5--5-5-5--|
E|---------------------------|-3--3--3-3-3--3--3--3-3-3--|
  no i'll never be like you    i'll never ever be like you


e|---------------------------|---------------------------|
B|---------------------------|---------------------------|
G|-5--5--5-5-5--5--5--5-5-5--|---------------------------|
D|-5--5--5-5-5--5--5--5-5-5--|-3--3--3-3-3--3--3--3-3-3--|
A|-3--3--3-3-3--3--3--3-3-3--|-3--3--3-3-3--3--3--3-3-3--|
E|---------------------------|-1--1--1-1-1--1--1--1-1-1--|
  oh no!                                   i'm just like 
  
e|------------|  
B|------------|
G|-3-(3)------|
D|-3-(3)------|
A|-1-(1)------|
E|------------|
   you!

Comments about this tab

No comments/corrections found. Add your own

Complimentary Christian Ringtones
Dadamobile and CGR have teamed up to bring your favorite Christian artists right to your phone. Sign up today and get 10 complementary ringtones!
Tab Country
Did you know CGR has a sister site w/ country guitar tabs? Well we do! Its called Tab Country. It has a great archive with a lot of country tabs.
Rockin Tabs
Are you looking for a site that has rock guitar tabs? Then Rockintabs.com is the place for you. It is a budding site with many rock guitar tabs. Submit your tab today.
Tab Gallery
Tab Gallery has a compilation of christian, rock, and country tabs all in one place. Come visit us.