Guitar Tabs
song title    band name

Join Us Today!

Don't strum alone...
be a part of the largest online Christian music community. Browse thousands of guitar tabs and chat w/ musicians like yourself.


It's Free!

MxPx - Southbound

This tab has not yet been rated for accuracy.Sorry, but you must be logged in to rate this tab.
Click here to log-in, or you can click here to register.
(Registration is free)

All songs owned by corresponding publishing company. If you make copies of any song on this website, be sure to report your usage to CCLI.
Song:  Southbound
Artist:  MxPx
Album:  Life in General

(slide into G)
G (Pm)
It's all the same

A (pm)               D (pm)
same old town with a different name

G (pm)
That's fine by me

        A (pm)                D (pm)
there's only one place that I wanna be

C    D          G
Southbound on I-5

C       D        G
windows down and music on the stereo

    C       D       G
I'm drivin' and I'm dreamin'

        C                 D      G
there's no place that I'd rather go

C (pm)           D (pm)
Staring at white lines on the side of the road

G, A, C,
G, A, C, D
G, A, C,
G, A, C, D

G (palm muted)     

Been on the road awhile

   A                   D
I gotta get back to a place with style

G
Hang out, havin' fun

  A                     D
I gotta get back to the beach in the sun

C    D          G
Southbound on I-5

C       D        G
windows down and music on the stereo

    C       D       G
I'm drivin' and I'm dreamin'

        C                 D      G
there's no place that I'd rather go

C (pm)        D (pm)
Playing every night, with the occasional fight

G, A, C,
G, A, C, D
G, A, C,
G, A, C, D, C#, D, C#, D
G


Solo added by Johnny Lloyd - StarFlyr99@aol.com
G-|---------------------------------------|
D-|--5-4-5-7-5-------7-5-7-9h10p9-7-------|
A-|--------------3--------------------5---|
G-|----------------------------|
D-|--5-4-5-7-5-------7-9-7-----|
A-|--------------3---------5---|
G-|----7----5--4h5p4-2----7----5--4h5p4-2--|
D-|--5----5-------------5----5-------------|
A-|----------------------------------------|
G-|----7----5--4h5p4-2----2-4-5-4-2-4--|
D-|--5----5----------------------------|
A-|------------------------------------|
G-|----7----5--4h5p4-2----7----5--4h5p4-2--|
D-|--5----5-------------5----5-------------|
A-|----------------------------------------|
G-|----7----5--4h5p4-2--2-4-5-4-2-4--|
D-|--5----5--------------------------|
A-|----------------------------------|
G-|-------------------------------------------|
D-|------5-4-5-7-5-------7-5-7-9h10p9-7-------|
A-|--5---------------3--------------------5---|
                                  
G-|----------------------------------|
D-|--5-4-5-7-5-------7-9-7--------5--| The G chord
A-|--------------3---------5------5--|   ends the song.
E-|-------------------------------3--|
       I'm absolutly positive this is right so if 
     you think something is wrong with this you're
              the one that is wrong :P

Comments about this tab

plainbass - 2004-06-26

dude do u mean g as in power chord or normal chord


souljahrar - 2004-10-01

Try them out separately, see which one sounds better, then go with the one that works!


Matt K - 2005-02-23

I have no clue what kind of chords your talkiing about. Should I just use mager chords.


jayemm87 - 2005-04-13

the song is played with power chords. and when you slide into the G chord at the beginning you slide into it from a C:

D-12
A-12
E-10


Add a comment/correction

Complimentary Christian Ringtones
Dadamobile and CGR have teamed up to bring your favorite Christian artists right to your phone. Sign up today and get 10 complementary ringtones!
Tab Country
Did you know CGR has a sister site w/ country guitar tabs? Well we do! Its called Tab Country. It has a great archive with a lot of country tabs.
Rockin Tabs
Are you looking for a site that has rock guitar tabs? Then Rockintabs.com is the place for you. It is a budding site with many rock guitar tabs. Submit your tab today.
Tab Gallery
Tab Gallery has a compilation of christian, rock, and country tabs all in one place. Come visit us.