Guitar Tabs
song title    band name

Join Us Today!

Don't strum alone...
be a part of the largest online Christian music community. Browse thousands of guitar tabs and chat w/ musicians like yourself.


It's Free!

MxPx - Lifetime Enlightenment

This tab has been rated a 2.00 out of 5 for accuracy. (1 vote)Sorry, but you must be logged in to rate this tab.
Click here to log-in, or you can click here to register.
(Registration is free)

All songs owned by corresponding publishing company. If you make copies of any song on this website, be sure to report your usage to CCLI.
Artist : MxPx   
Song : Lifetime Enlightenment
Album : I'm your biggest fan Vol.1(T&N punk sampler)
Tabbed by : Alex (QFZA82A@PRODIGY.COM)
Copyright 1996 Spinning Audio Vortex Music

This sound's pretty accurate. E-mail me if this needs to be corrected.


Intro
  G     Bb    B     G#     D
| --------------------------------------------Repeat 3x's----|
| -----------------------------------------------------------|
| -------------------------7--7------------------------------|
| 5--5--8--8--9--9--6--6---7--7------------------------------|
| 5--5--8--8--9--9--6--6---5--5------------------------------|
| 3--3--6--6--7--7--4--4-------------------------------------|
Then do the same thing except mute the down stroke of  B, G# and D.

Chorus

  G                       Bb A  Bb A
| ------------------------------------------------------|
| ------------------------------------------------------|
| ------------------------------------------------------|
| 5--5--5--5--5--5--5--5--8--7--8--7--------------------|
| 5--5--5--5--5--5--5--5--8--7--8--7--------------------|
| 3--3--3--3--3--3--3--3--6--5--6--5--------------------|

Here's the 'Smoke on the Water' solo bridge type thing.

|----------------------------------------------------------------------------|
|----------------------------------------------------------------------------|
|----------------------------------------------------------------------------|
|2--5--8--2-2--5--9--2--5--9--8--5--2--x--x--x--x--x--x--x--x--5--x--x--x--x-|
|2--5--8--2-2--5--9--2--5--9--8--5--2--x--x--x--x--x--x--x--x--5--x--x--x--x-|
|0--3--6--0-0--3--7--0--3--7--6--3--0--x--x--x--x--x--x--x--x--3--x--x--x--x-|
Repeat that 2 times 

The "Augggghhhhh" part at the end end's with a G chord. If you like 
this or hate this, please feel free to E-Mail me at QFZA82A@PRODIGY.
COM. This is my first time tabbing a song out. Neat.

Comments about this tab

lespauly08 - 2005-09-22

hey buddy for the smoke on the water part you might want to try

E
B
G-----------------------------------------------
D---2--5--7--2--5--8--7--2--5--7--5--2----------------------------------------
A---2--5--7--2--5--8--7--2--5--7--5--2----------------------------------------
e---0--3--5--0--3--6--5--0--3--5--3--0-----------------------------------------


Add a comment/correction

Complimentary Christian Ringtones
Dadamobile and CGR have teamed up to bring your favorite Christian artists right to your phone. Sign up today and get 10 complementary ringtones!
Tab Country
Did you know CGR has a sister site w/ country guitar tabs? Well we do! Its called Tab Country. It has a great archive with a lot of country tabs.
Rockin Tabs
Are you looking for a site that has rock guitar tabs? Then Rockintabs.com is the place for you. It is a budding site with many rock guitar tabs. Submit your tab today.
Tab Gallery
Tab Gallery has a compilation of christian, rock, and country tabs all in one place. Come visit us.