Guitar Tabs
song title    band name

Join Us Today!

Don't strum alone...
be a part of the largest online Christian music community. Browse thousands of guitar tabs and chat w/ musicians like yourself.


It's Free!

Mullen, Nicole C. - On My Knees

This tab has not yet been rated for accuracy.Sorry, but you must be logged in to rate this tab.
Click here to log-in, or you can click here to register.
(Registration is free)

All songs owned by corresponding publishing company. If you make copies of any song on this website, be sure to report your usage to CCLI.
On My Knees
Nicole C. Mullen
Transcribed by: Jessie Marus (jessie@christianguitar.ws)

Capo 2

E|-----------2-3-0-----------------------------------------------
B|-----------------3-0---1-0-0-----------------------------------
G|----3----3-----------2---0-0-----------------------------------
D|---0----0------------------------------------------------------
A|--4----4-------------------------------------------------------
E|-3----0--------------------------------------------------------

Intro: Tab x2

G               Em
There are days, when I feel
     C               D
The best of me, is ready to begin
G                    Em   
Then there're days, when I feel
     C               D              Em
I'm letting go, and soaring on the wind
                     D              C
But I've learned in laughter or in pain
         D      Am7
How to survive


Chorus:

      Em7    Em    D            G
I get on my knees, I get on my knees
Em           G         C
There I am before the love 
             D 
That changes me
Em               C               D
See I dont know how but there's power
            G
When I'm on my knees


G         Em 
I can be, In a crowd
   C               D
Or by myself, or almost anywhere
G             Em
When I feel, there's a need
    C                D          Em
To talk with God, he is Emmanuel
                 D                C
When I close my eyes no darkness there
              D     Am7
There's only light


Chorus:

           Em7    Em      D               G
When I get on my knees, When I get on my knees
Em           G         C
There I am before the love 
             D 
That changes me


Bridge:

    Em           C               D
See I dont know how but there's power
        C
In the blue skys
Em           C               D
I dont know how but there's power
        C
In the midnight
Em           C               D
I dont know how but there's power
         G      Em
When I'm on my knees


Chorus:

             Em    D            G 
I get on my knees, I get on my knees
Em            G        C
There I am before the love 
             D
That changes me
Em                            C  
I dont know how but there's power
Em                   C             D
I dont know how but God gives me power
Em                           C
I dont know how but there's power
         D      G
When I'm on my knees


Tab x5 and fade



http://www.christianguitar.ws/
Please do not archive without permission!
mickey@christianguitar.ws

Comments about this tab

Eyler_LM - 2004-07-14

This song is done by Jaci Valasquez as well.


Eyler_LM - 2004-07-14

This song is done by Jaci Valasquez as well.


ncm*fan - 2006-02-26

i love this song...yes jaci does this song too but i like it better by Nicole....plus Nicole wrote it!


carlyarab - 2006-05-18

Try this out. I watched the "Live from Cincinati" DVD and picked out the intro. It sounds beautiful when you get it up to speed.


A A/F#

1-----------0-----------------------------------------0---------------
2----------------------2-----------------------------------------0----
3----1-h-2----------2-----2--------------------1-h-2----------2-------
4---------------------------------------------------------------------
5--0-------------0------------------------2---------------------------
6-------------------------------------------------------2-------------



E D A A add D

1---4-----4-h-5-----2-----------------------------------------------
2-------5-----------------2-------------2---------3-----------2--3--
3-----4----------------2-----2-----------------2-----------2--2--2--
4---0---------------0-----------------------2-----------2-----------
5-------------------------------------------------------------------
6---------------------------------------0---------------------------


carlyarab - 2006-05-18

Ooops... it messed it up when it was posted... Oh well


Add a comment/correction

Complimentary Christian Ringtones
Dadamobile and CGR have teamed up to bring your favorite Christian artists right to your phone. Sign up today and get 10 complementary ringtones!
Tab Country
Did you know CGR has a sister site w/ country guitar tabs? Well we do! Its called Tab Country. It has a great archive with a lot of country tabs.
Rockin Tabs
Are you looking for a site that has rock guitar tabs? Then Rockintabs.com is the place for you. It is a budding site with many rock guitar tabs. Submit your tab today.
Tab Gallery
Tab Gallery has a compilation of christian, rock, and country tabs all in one place. Come visit us.