Guitar Tabs
song title    band name

Join Us Today!

Don't strum alone...
be a part of the largest online Christian music community. Browse thousands of guitar tabs and chat w/ musicians like yourself.


It's Free!

This tab has been rated a 1.00 out of 5 for accuracy. (3 votes)Sorry, but you must be logged in to rate this tab.
Click here to log-in, or you can click here to register.
(Registration is free)

All songs owned by corresponding publishing company. If you make copies of any song on this website, be sure to report your usage to CCLI.
Listen To Our Hearts
By Geoff Moore & Steven Curtis Chapman
Tabbed by George Kim (Doingthewalk@Christianemail.com)
Copyright 1992 Songs on the Forefront
Tuning: Drop 1/2 step (Eb Bb Gb Db Ab Eb)

Intro:

eb-----------------2---2-----------------------3----2------------------
Bb--3-3-3----3-----3---3--------3-3-3----3-----3----3------------------
Gb--4-4-2r0--0-----0---0--0-----4-4-2r0--0-----0----0--0---------------
Db---------------------------------------------------------------------
Ab-----------3--3----3------3------------3---3----3------3-------------
Eb---------------------------------------------------------------------

Eb-----------------2-----2-------------------------------------0-------
Bb--3-3-3----3-----3-----3---------3--3----------------------0---------
Gb--4-4-2r0--0-----0-----0--0-------------------------0----0----------
Db---------------------------------2--2-----0--0h2/4-----4-------------
Ab-----------3--3-----3--------3---2--2-0h2----------------------------
Eb---------------------------------------------------------------------

Verses:
      Csus2          Csus/F#                 Em9                 Em9/F#
eb------------------2------2----------------------------2--------2-----
Bb---3------3-------3------3-------3------3------3------3--3-----3--3--
Gb---0-0----0-0-------0------0-------0------0------0-------------------
Db------------------------------------------------------2-----2--2----2
Ab---3---3--3---3---3---3--3---3---2---3--2---2--2---2-----------------
Eb---------------------------------------------------------------------

      Csus2                Csus/F#      Dsus2   D      G    
eb------------------2------2-------0------2------3----------------0----
Bb---3------3-------3------3-------3------3------3--------------0------
Gb---0-0----0-0-------0------0-----2-2----2-2----0--------0---0--------
Db---------------------------------0---0--0---0-----0h2/4---4----------
Ab---3---3--3---3---3---3--3---3---------------------------------------
Eb-----------------------------------------------3---------------------

Chorus:

      Csus2          Csus/F#                 Em9                 Em9/F#
eb------------------2------2----------------------------2--------2-----
Bb---3------3-------3------3-------3------3------3------3--3-----3--3--
Gb---0-0----0-0-------0------0-------0------0------0-------------------
Db------------------------------------------------------2-----2--2----2
Ab---3---3--3---3---3---3--3---3---2---3--2---2--2---2-----------------
Eb---------------------------------------------------------------------

      Csus2                Csus/F#      Dsus2   D      G    
eb------------------2------2-------0------2------3-----3---------------
Bb---3------3-------3------3-------3------3------3-------3-------------
Gb---0-0----0-0-------0------0-----2-2----2-2----0-0-------0-----------
Db---------------------------------0---0--0---0------------------------
Ab---3---3--3---3---3---3--3---3------------------------------------0--
Eb-----------------------------------------------3---3--------3--------

      Csus2                Csus/F#      Dsus2   D     Em9                 Em9/F#
eb------------------2------2-------0------2--------------------2-------
Bb---3------3-------3------3-------3------3------3-----3-------3-3-----
Gb---0-0----0-0-------0------0-----2-2----2-2------0-----0-------------
Db---------------------------------0---0--0---0----------------2---2---
Ab---3---3--3---3---3---3--3---3-----------------2---2-2---2-----------
Eb---------------------------------------------------------------------

           Csus2              Csus/F#     Dsus2   D      G    
eb-2-------------------2-----2-------0------2------3-----3-------------
Bb-3-3----3------3-----3-----3-------3------3------3-----3-------------
Gb--------0-0----0-0-----0-----0-----2-2----2-2----0-0---0-------------
Db-2---2---------------------------------0--0---0----------------------
Ab--------3---3--3---3-3--3--3---3-------------------------------------
Eb-------------------------------------------------3---3-3-------------

-Verse 1-
          Csus2 Csus/F#        Em9     Em9/F#
How do you explain, how do you describe
                            Csus2   Csus/F#
A love that goes from East to West
     D2      D            G
And runs as deep as it is wide
          Csus2 Csus/F#        Em9     Em9/F#
You know all our hopes, (Lord) You know all our fears
                            Csus2   Csus/F#
Words cannot express the love we feel
         D2      D      G
But we long for You to hear

-Chorus-
              Csus2  Csus/F#             Em9  Em9/F#
So listen to our hearts, hear our spirit sing
      Csus2                Csus/F#      
A song of praise that flows
       Dsus2     D      G
>From those You have redeemed
      Csus2                Csus/F#
We will use the words we know 
              Dsus2   D     Em9 Em9/F#
To tell You what an Awesome God You are
            Csus2             Csus/F#     
But words are not enough to tell You of our love
    D2        D    G
So listen to our hearts

-Verse 2-

If words could fall like rain 
>From these lips of mine 
And if I had a thousand years
I would still run out of time
But if You listen to my heart
Every beat would say
Thank you for the life, thank you for the truth
Thank you for the way

-Chorus-

Solo: Verse riffs

          Csus2 Csus/F#        Em9     Em9/F#
You know all our hopes, Lord you know all our fears
                            Csus2   Csus/F#
Words cannot express the love we feel
         D2      D      G
But we long for You to hear

-Chorus-

        Csus2         Csus/F#     
Words are not enough to tell You of our love
    D2        D    G
So listen to our hearts

Comments about this tab

dalpangi89 - 2005-10-13

It gives me a general idea of how the song goes... it's not perfect, but it's very nice =D


Add a comment/correction

Complimentary Christian Ringtones
Dadamobile and CGR have teamed up to bring your favorite Christian artists right to your phone. Sign up today and get 10 complementary ringtones!
Tab Country
Did you know CGR has a sister site w/ country guitar tabs? Well we do! Its called Tab Country. It has a great archive with a lot of country tabs.
Rockin Tabs
Are you looking for a site that has rock guitar tabs? Then Rockintabs.com is the place for you. It is a budding site with many rock guitar tabs. Submit your tab today.
Tab Gallery
Tab Gallery has a compilation of christian, rock, and country tabs all in one place. Come visit us.