Guitar Tabs
song title    band name

Join Us Today!

Don't strum alone...
be a part of the largest online Christian music community. Browse thousands of guitar tabs and chat w/ musicians like yourself.


It's Free!

This tab has not yet been rated for accuracy.Sorry, but you must be logged in to rate this tab.
Click here to log-in, or you can click here to register.
(Registration is free)

All songs owned by corresponding publishing company. If you make copies of any song on this website, be sure to report your usage to CCLI.
Best Days
Words & Music by Geoff Moore & Phil Madeira
Album: Home Run
Copyright 1995  Starstruck Music
Tab by jim_berg@ix.netcom.com

E]--------------------0-----0----0----------------------0-----0------------
B]----------------------9-----9----9----------------------9-----9----------
G]-------------------------------------------------------------------------
D]-------------------------------------------------------------------------
A]----2--slide up to 7-----7-----7----2 slide up to 7----7----7------------
E]-------------------------------------------------------------------------
Intro Section (still working on picking)

E]---------4---------4----------5-----------5---------7------7-12--11----9--
B]-----------------0---------------------0-----------------0----------------
G]--------------------------------------------------------------------------
D]---------2----2---------------4----4----------------6--6-----9----9----7--
A]--------------------------------------------------------------------------
E]--------------------------------------------------------------------------
	The river was deep	The water was cold	I was only 12 years old


E]-------7---------7----------5---------5-----4----------4---2----5----4---
B]---------------0--------------------0-----------------0------------------
G]-------------------------------------------------------------------------
D]-------6----6---------------4----4----------2----2---------0----4----2---
A]-------------------------------------------------------------------------
E]-------------------------------------------------------------------------
	My Dad and Me	trout fishing	waist deep in a Michigan stream.


E]------4---------4-----------5-----------5--------7-----7---12--11---9---
B]--------------0---------------------0-----------------0-----------------
G]------------------------------------------------------------------------
D]------2----2----------------4----4--------------6--6-------9----9---7---
A]------------------------------------------------------------------------
E]------------------------------------------------------------------------
	He showed me how	to make that fly      look like it was so alive



E]-------7---------7----------5---------5-------------4--------4---2----5----4-
B]---------------0--------------------0-----------------------0----------------
G]-----------------------------------------------------------------------------
D]-------6----6---------------4----4------------------2---2--------0----4----2-
A]-----------------------------------------------------------------------------
E]-----------------------------------------------------------------------------
	And then he helped	me understand		how to be a fisher of    men.


Chorus
E]--9----9--7-----7----5----5----4-----4-----2-----2---------0------------0--
B]------0--------0----------0----------0-----------0-----5-----5------9-----9
G]---------------------------------------------------------------------------
D]--7--7----6--6-------4--4------2--2--------0--0----------------------------
A]---------------------------------------------------------4--4---------7--7-
E]---------------------------------------------------------------------------
        And all the world was right and I felt so full and alive in the wonder and the light

E]----9------9------7------7---5------5----4------4-------------2------2---
B]----------0-------------0-----------0-----------0--------------------0---
G]-------------------------------------------------------------------------
D]----7---7---------6---6------4---4-------2---2----------------0---0------
A]-------------------------------------------------------------------------
E]-------------------------------------------------------------------------
	and I would never be the same    for I knew somehow I had changed

E]-------------0----------------------------------------------------------0--
B]-----5---------5-----------4--5--7---------------10----12-------9------9---
G]---------------------------------------------------------------------------
D]---------------------------------------------------------------------------
A]-----4---4-----------------2--4--6----------------9-----11------7--7-------
E]---------------------------------------------------------------------------
	Even now I’d have to say		it was one of my best days.

I have not figured out the guitar work during the instrumental
bridge...any help? Send me an email jim_berg@ix.netcom.com

Comments about this tab

sleepytimesnow - 2005-07-04

I was just wondering if the song you are playing here came off of the Home Run CD


Add a comment/correction

Complimentary Christian Ringtones
Dadamobile and CGR have teamed up to bring your favorite Christian artists right to your phone. Sign up today and get 10 complementary ringtones!
Tab Country
Did you know CGR has a sister site w/ country guitar tabs? Well we do! Its called Tab Country. It has a great archive with a lot of country tabs.
Rockin Tabs
Are you looking for a site that has rock guitar tabs? Then Rockintabs.com is the place for you. It is a budding site with many rock guitar tabs. Submit your tab today.
Tab Gallery
Tab Gallery has a compilation of christian, rock, and country tabs all in one place. Come visit us.