Guitar Tabs
song title    band name

Join Us Today!

Don't strum alone...
be a part of the largest online Christian music community. Browse thousands of guitar tabs and chat w/ musicians like yourself.


It's Free!

This tab has not yet been rated for accuracy.Sorry, but you must be logged in to rate this tab.
Click here to log-in, or you can click here to register.
(Registration is free)

All songs owned by corresponding publishing company. If you make copies of any song on this website, be sure to report your usage to CCLI.
**************************
Super Busy
(Oran Thornton/Miss Angie)
**************************

PICK SLIDE (from the nut, up the neck- ie. left to right for a right
hander- pushing against the fretboard)

[Shuffle]

                D
I'm busy lovin' You today,
                 Bb
I don't have any time to play
                 D
I'm busy knowing You today
                      Bb        A
There's no time for a normal da-ay

CHORUS
GUITAR 1
    D        A  x2 D             G     A
e||-10-10-10-5/-||-10-10-10-10-|-3--3--------|
B||-10-10-10-5/-||-10-10-10-10-|-3--3--7-br-5|
G||-11-11-11-6/-||-11-11-11-11-|-4--4--------|
D||-12-12-12-7/-||-12-12-12-12-|-5--5--------|
A||-------------||-------------|-------------|
E||-------------||-------------|-------------|

GUITAR 2
        D        A  x2 D             G     A
e|---||-------------||-------------|-------------|
B|---||-------------||-------------|-------------|
G|---||-------------||-------------|-------------|
D|-7/||-12\------7/-||-12\---------|-5--5--7--7--|
A|-7/||-12\------7/-||-12\---------|-5--5--7--7--|
E|-5/||-10\------5/-||-10\---------|-3--3--5--5--|

D             A D
What would You
D             A D
Tell me do You
D
What would You
       G      A
Do You really feel the same?
D             A D
What would You
D             A D
Tell me do You
D
Do ya do ya
      G      A        C
Do ya really feel the same?

                   D
I've got You in my heart today
                  Bb
I know he tries to steal away
                   D
I've got You in my heart today
                Bb       A
It's our secret hideaway-ayay

CHORUS
C (D)

G
What I need is what you give me
    D                    (F#)
And I can't get it enough
G
What I need is what you give me
D                  D C# B A
And I can't get it enough

SOLO (GUITAR 1 w/distortion)
                         x3
||-----------------------||---------------------|
||-----------------------||---------------------|
||----------------4------||---------------------|
||-7-7-4--7-7-4--7--7-4--||-5-5-4-----5-5-4-----|
||-----------------------||-------5-2-------5-2-|
||-----------------------||---------------------|

GUITAR 2 (these names probably aren't right, but the notes are)
  D DMaj7 D7 G/D
|----------------|
|----------------|
|-7---6----5--4--|
|-7---7----7--5--|
|-5---5----5--5--|
|----------------|

REPEAT with:
Do You like me the same, the same?

THEN                                    x3
e||-------------------------------------||
B||-15-15-15-15-15-15-15-15-15-15-15-15-|| w/CHORUS riff x1 (GUITAR 2)
G||-14-14-14-14-14-14-14-14-14-14-14-14-||
(this bar is divided into triplets ie. 3notes to a beat)
Play the bar 3 times THEN double GUITAR 2 for the G A at the end of
the CHORUS riff

THEN
CHORUS x2 (GUITARS 1 and 2 play their normal parts)

C

END:
e|---|-------
B|---|-------
G|---|-------
D|-7-|-12\---
A|-7-|-12\---
E|-5-|-10\---

Comments about this tab

No comments/corrections found. Add your own

Complimentary Christian Ringtones
Dadamobile and CGR have teamed up to bring your favorite Christian artists right to your phone. Sign up today and get 10 complementary ringtones!
Tab Country
Did you know CGR has a sister site w/ country guitar tabs? Well we do! Its called Tab Country. It has a great archive with a lot of country tabs.
Rockin Tabs
Are you looking for a site that has rock guitar tabs? Then Rockintabs.com is the place for you. It is a budding site with many rock guitar tabs. Submit your tab today.
Tab Gallery
Tab Gallery has a compilation of christian, rock, and country tabs all in one place. Come visit us.