Guitar Tabs
song title    band name

Join Us Today!

Don't strum alone...
be a part of the largest online Christian music community. Browse thousands of guitar tabs and chat w/ musicians like yourself.


It's Free!

This tab has not yet been rated for accuracy.Sorry, but you must be logged in to rate this tab.
Click here to log-in, or you can click here to register.
(Registration is free)

All songs owned by corresponding publishing company. If you make copies of any song on this website, be sure to report your usage to CCLI.
Song: Lift My Eyes
Artist: Miss Angie
Album: 100 Million Eyeballs (c) Myrrh Records, a division of
Word Entertainment Inc.
Written: Troy Daughtery, Dan Fritz, Miss Angie, Shawn Turner
Tabbed: Bryan (baxe@misi.net)


    E  F  F#  G  Ab  A  A#  C   Db[intro] Db  D 
e|-----------------------------------------------|
B|-----------------------------------------------|
D|----------------------------------------6---7--|
G|--2--3--4---5--6---7--8---10--11--------6---7--|
A|--2--3--4---5--6---7--8---10--11--------4---5--|
E|--0--1--2---3--4---5--6---8---9---------x---x--|


[Intro]

F-A-B-Db-F#-E-D-Db   (2x)


F#     A     Ab      A           F#           A       Ab 
Im so blind in times like these cant see that I can know the 
 A            D       Db  
way out of the way I feel if


[Chorus]
G              A#
I lift my eyes up
C              D
I life my eyes up

D   F#   D  Db
You feel so real

 F#      A        Ab      A              F#         A      
Times have changed for me Ive seen how it can be now I know 
       Ab             D    Db    
I can show the new way I feel if


[Chorus]
G              A#
I lift my eyes up
C              D
I lift my eyes up

D   F#   D  Db
You feel so real

[Solo]
e|---------------------------------------------------------------------|
B|---------5--------5--------5--------5--------5--------5--------5-----|
G|--5b-5-3---5b-5-3---5b-5-3---5b-5-3---5b-5-3---5b-5-3---5b-5-3-------|
D|---------------------------------------------------------------------|
A|---------------------------------------------------------------------|
E|---------------------------------------------------------------------|

e|---------------------------------------------------------------------|
B|---------------------------------------------------------------------|
G|--10-10-10-10-7-7-7-7-10-10-10-10-7-7-7-7-10-10-10-10-7-7-7-7--------|
D|--------------------------------------------------------------10-----|
A|--------------------------------------------------------------8------|
E|--------------------------------------------------------------8------|

e|---------------------------------------------------------------------|
B|---------------------------------------------------------------------|
G|--14-14-14-14-14-14-14-14-14-15-15-15-15-15-15-15-15-15-15-14-14-14--|
D|---------------------------------------------------------------------|
A|---------------------------------------------------------------------|
E|---------------------------------------------------------------------|

e|---------------------------------------------------------------------|
B|--------------------13-13-13-13-13-13--------------------------------|
G|--10-10-10-10-10-10-------------------14-14-14-14-14-14-14-14-14-15--|
D|---------------------------------------------------------------------|
A|---------------------------------------------------------------------|
E|---------------------------------------------------------------------|

e|---------------------------------------------------------------------|
B|---------------------------------------------------------------------|
G|--15-15-15-15-15-15-15-15-15-14-14-14-10-10-10-10-10-10...-----------|
D|---------------------------------------------------------------------|
A|---------------------------------------------------------------------|
E|---------------------------------------------------------------------|


D   F#   D  Db
You feel so real

F#           A           Ab                  A             
Its a mess, Its a mess, some say my brain a mess for laying 
 F#       A           Ab       D       Db  
down my life for the one they say is crazy


G              A#
I lift my eyes up
C              D
I lift my eyes up
D              D 
I lift my eyes up
D              D
I lift my eyes up


D   F#   D  Db
You feel so real
D   F#   D  Db
You feel so real

Comments about this tab

No comments/corrections found. Add your own

Complimentary Christian Ringtones
Dadamobile and CGR have teamed up to bring your favorite Christian artists right to your phone. Sign up today and get 10 complementary ringtones!
Tab Country
Did you know CGR has a sister site w/ country guitar tabs? Well we do! Its called Tab Country. It has a great archive with a lot of country tabs.
Rockin Tabs
Are you looking for a site that has rock guitar tabs? Then Rockintabs.com is the place for you. It is a budding site with many rock guitar tabs. Submit your tab today.
Tab Gallery
Tab Gallery has a compilation of christian, rock, and country tabs all in one place. Come visit us.