Guitar Tabs
song title    band name

Join Us Today!

Don't strum alone...
be a part of the largest online Christian music community. Browse thousands of guitar tabs and chat w/ musicians like yourself.


It's Free!

This tab has not yet been rated for accuracy.Sorry, but you must be logged in to rate this tab.
Click here to log-in, or you can click here to register.
(Registration is free)

All songs owned by corresponding publishing company. If you make copies of any song on this website, be sure to report your usage to CCLI.
Rain
by Mary's den
Album: The Sound of Rain
written by: Crispin Schroeder
(c)1996 Crispin Schroeder/Crispin Schroeder Ministries/BMI
Tabbed Cody Pitre, cpitre@intop.net
The Christian Collective of Guitar Tabs
http://www.geocities.com/cmulder25/index.html
==========================================================
The main riff is easy to play but will be hard to tab.
Listen to the CD for the right rhythm.

x = mute
/ = slide up
\ = slide down

  E riff
e-----------------------|-----------------|
b-----------------------|-----------------|Repeat
g--11--/--13---13-13-13-|-14--13--11--13--|these 2
D---x------x----x--x--x-|--x---x---x---x--|measures
A--9---/--11---11-11-11-|-12--11--9---11--|then
E--0------0----0--0--0--|--0--0---0---0---|play the bottom 2 measures


e-----------|---------------------------|
b-----------|---------------------------|
g--13-\--7--|---11--7--7---7-/-9-9-9----|
D---x----x--|----x--x--x---x---x-x-x----|
A--11-\--5--|---9---5--5---5-/-7-7-7----|
E--0-----0--|---0---0--0---0---0-0-0----|


Verse 1:(Play E riff)
Holy Spirit wash me in Your living water
Pull me in Your river, pull me in and under
I hear Your voice it's calling
and Your rain is falling down
on this dry and thirsty land


Chorus:
     D A       G      E
Your rain is falling down
     D A       G      E
Your rain is falling down
     D A       G      E 
Your rain is falling down
     D A       G      A 
Your rain is falling down



Verse 2:(same as verse 1)
There's a river flowing
and Your wind is blowing
Giving life and taking away the pain
I now live because Your Holy Spirit
life is flowing in my veins


Bridge:
          E               F/E   G/E               F/E             E  F/E G/E
e---------0----------------0-----0-----------------0--------------0---0--0-|
b---------0----------------0-----0-----------------0--------------0---0--0-|
g---------1----------------2-----4-----------------2--------------1---2--4-|
D---------2----------------3-----5-----------------3--------------2---3--5-|
A---------2----------------3-----5-----------------3--------------2---3--5-|
E---------0----------------0-----0-----------------0--------------0---0--0-| 
 In this dry and thirsty land  touch us with Your hand and let it rain

Repeat bridge

                 E7#9
e-----------------0---0--0--|
b-----------------8---8--8--|Repeat this
g-----------------7---7--7--|over and over
D-----------------6---6--7--|til the chorus
A-----------------7---7--6--|starts again
E-----------------0---0--0--|
 Let it Rain!!

Repeat Chorus

         G         A
Let it fall right down
           G           A
Let Your Spirit fall down 
             E
Lord let it rain


End with E riff

Comments about this tab

No comments/corrections found. Add your own

Complimentary Christian Ringtones
Dadamobile and CGR have teamed up to bring your favorite Christian artists right to your phone. Sign up today and get 10 complementary ringtones!
Tab Country
Did you know CGR has a sister site w/ country guitar tabs? Well we do! Its called Tab Country. It has a great archive with a lot of country tabs.
Rockin Tabs
Are you looking for a site that has rock guitar tabs? Then Rockintabs.com is the place for you. It is a budding site with many rock guitar tabs. Submit your tab today.
Tab Gallery
Tab Gallery has a compilation of christian, rock, and country tabs all in one place. Come visit us.