Guitar Tabs
song title    band name

Join Us Today!

Don't strum alone...
be a part of the largest online Christian music community. Browse thousands of guitar tabs and chat w/ musicians like yourself.


It's Free!

This tab has not yet been rated for accuracy.Sorry, but you must be logged in to rate this tab.
Click here to log-in, or you can click here to register.
(Registration is free)

All songs owned by corresponding publishing company. If you make copies of any song on this website, be sure to report your usage to CCLI.
Live it
by Mary's den
Album: Through These Pinholes
written by: Crispin Schroeder
(c)1994 Crispin Schroeder/Crispin Schroeder Ministries/BMI
Tabbed Cody Pitre, cpitre@intop.net
The Christian Collective of Guitar Tabs
http://www.geocities.com/cmulder25/index.html
==========================================================

Intro: A  G (4x)


Verse 1:
A  G
    He gave you life, 
A  G    
    but you've got to live it
A  G
    He set you free with the truth,
A  G
    now why don't you give it 
A  G
    to this world
A  G
    out there searching for more
A  G
    Beyond these four walls, 
A  G
    outside your front door


Chorus:
A C         D         A                 C        D  A              
   He has changed my life and made my heart new
   C         D        A                 C        D  A
   He has changed my life and made my heart new
   C         D        A                     C
   He has changed my life and He'll change you too
                      D
   if you let Him in


Verse 2:(same as verse 1)
All this time 
you've been walking on that line
with your head in the heavens, 
but your heart lost behind
Are you gonna run for the light 
of the next detour sign?
You can't stay on this fence forever, 
you've got to make up your mind

Repeat chorus

Bridge:
C                             D
We all start thinking we can make it on our own
      C 
as we kick back our chains, put up our feet,
         D
in our little comfort zones;
       C
but I tell you what man
                       D
Jesus, the cross, man, it all means more

than that
C
So tell me is His will really where you're at


guitar solo:(not exact but close to the solo on CD)
/ = slide up
v = vibrato
p = pull
b = bend
r = release
h = hammer

 A                   C           D        A             C  
e--------------------------------------------|----------------------
b--------------------5--5--5--5--------------|----------17v-17-17-17
g----------------5--b7-b7-b7-b7--/9-7-5------|-14p12-14-------------
D------5-7v---/7------------------------5-7--|----------------------
A--5/7---------------------------------------|----------------------
E--------------------------------------------|----------------------

       D                A                   C           D        A
e--------------------------|-----------------------------------------|
b--17--15-13-12h13-12v--10-|--5--5--5--5----5------------5-----------|
g--------------------------|-b7-b7-b7-b7---b7-r7--------b7-r7--------|
D--------------------------|---------------------7-5h7--------7-5h7--|
A--------------------------|-----------------------------------------|
E--------------------------|-----------------------------------------|

              C           D        A (I'm tired, just improvise the rest)  
e-----------------------------------------
b-----------------------------------------
g-----5-7-b7-r7-5---12----12-14-----------
D--7-------------------14-----------------
A-----------------------------------------
E-----------------------------------------


Repeat Verse 1

Comments about this tab

No comments/corrections found. Add your own

Complimentary Christian Ringtones
Dadamobile and CGR have teamed up to bring your favorite Christian artists right to your phone. Sign up today and get 10 complementary ringtones!
Tab Country
Did you know CGR has a sister site w/ country guitar tabs? Well we do! Its called Tab Country. It has a great archive with a lot of country tabs.
Rockin Tabs
Are you looking for a site that has rock guitar tabs? Then Rockintabs.com is the place for you. It is a budding site with many rock guitar tabs. Submit your tab today.
Tab Gallery
Tab Gallery has a compilation of christian, rock, and country tabs all in one place. Come visit us.