Guitar Tabs
song title    band name

Join Us Today!

Don't strum alone...
be a part of the largest online Christian music community. Browse thousands of guitar tabs and chat w/ musicians like yourself.


It's Free!

This tab has not yet been rated for accuracy.Sorry, but you must be logged in to rate this tab.
Click here to log-in, or you can click here to register.
(Registration is free)

All songs owned by corresponding publishing company. If you make copies of any song on this website, be sure to report your usage to CCLI.
Song: True Believer
Band: Hokus Pick
Cd: Snappy
Copyright: 
Tabbed by: Ryanne (edvdm@attbi.com)

I couldnít believe no one has done this song yet. Hokus Pick isnít
my favorite group, but this song rocks. Oh yeah, if you haven't heard
the hidden track at the end, go listen to it now (you have to fast
forward like 7 minutes past the end of the last song)

Verse (first part) x4
E|----------------------------------------------
B|-----0----0-0-----0---1-0---------------------
G|-----0----2-0-----0---0-0---------------------
D|---2----0-------2---2-------------------------
A|--------------3-------------------------------
E|-3--------------------------------------------

Verse (second part)
E|----------------------------------------------
B|-----3--1-0-------0---1-0--0--0-----0----1-0--
G|-----0--0-0-------0---0-0--0--0-----0----0-0--
D|--------2-------0---0------2--2---0----0------
A|---2----3------------------2--3---------------
E|-0-----------3-------------0----3-------------

Verse (first part) x2
Verse (second part)

Chorus-powerchords
1|(G D E* C) x2
2|(G D C) x2

Verse (first part) x2- there are some minor changes, but theyíre
easy to figure out.
Verse (second part)
Chorus 1| x2 end on low E

Bridge play () till end
E|-----2----------3-(-0------2-----------3-)--
B|-------3------3---(-0--------3-------3---)--
G|---2--------0-----(-0--------------0-----)--
D|-0----------------(-2----0---------------)--
A|----------3-------(-2-----------3--------)--
E|------------------(-0--------------------)--

Chorus (first part) x4
Chorus (second part) x4 end on G

Chords:
G-355xxx
D-x577xx
E*-x799xx
C-x355xxx
E-022xxx

Comments about this tab

Harpazo'04 - 2005-06-19

SWEEEEEET!!!!!!!!!!! This is like the best song on the whole CD!!!!!!!!!!


Add a comment/correction

Complimentary Christian Ringtones
Dadamobile and CGR have teamed up to bring your favorite Christian artists right to your phone. Sign up today and get 10 complementary ringtones!
Tab Country
Did you know CGR has a sister site w/ country guitar tabs? Well we do! Its called Tab Country. It has a great archive with a lot of country tabs.
Rockin Tabs
Are you looking for a site that has rock guitar tabs? Then Rockintabs.com is the place for you. It is a budding site with many rock guitar tabs. Submit your tab today.
Tab Gallery
Tab Gallery has a compilation of christian, rock, and country tabs all in one place. Come visit us.