Guitar Tabs
song title    band name

Join Us Today!

Don't strum alone...
be a part of the largest online Christian music community. Browse thousands of guitar tabs and chat w/ musicians like yourself.


It's Free!

This tab has been rated a 5.00 out of 5 for accuracy. (2 votes)Sorry, but you must be logged in to rate this tab.
Click here to log-in, or you can click here to register.
(Registration is free)

All songs owned by corresponding publishing company. If you make copies of any song on this website, be sure to report your usage to CCLI.
Song: Double Standard 
Band: Hangnail
Cd: Hangnail
Copyright: Sorry, I canít find my cd cover
Tabbed by: Ryanne (edvdm@attbi.com)

Hangnail is an awesome group. They have some of the best guitar Iíve
heard in Christian music. Anyway, there are 2 (I think) guitars in
this song. I figured them both out, but Iím just going to list them
one by one, youíll have to figure out where to play them yourself.
Let me know if you find any mistakes.

First guitar:

E|----------------------------------------------------5h6p5------------
B|---------6--5-------------8-65----------------5-6-8------5h6p5---5---
G|------7------------5-5h7p5----9/7-5--------5-7-----------------7-6---
D|-777-7-7--7---5h7h8-----------------8-5-7-8--------------------------
A|---------------------------------------------------------------------
E|---------------------------------------------------------------------

Play {} x3
E|-{--------------------}----------------------5--6-8-6-5--------------
B|-{--------------------}-------------------56--6--------6-----6865---
G|-{--------------------}-----------------67-----7--------7-7h9----5---
D|-{888-777-55----------}-888-777-55---578-----------------------------
A|-{----------888-777-55}-----------578--------------------------------
E|-{--------------------}----------------------------------------------

E|-5--6-8-6-5--------------------------8-656565------------------------
B|--6--------6-----6865---------56865-----------56865------------------
G|---7--------7-7h9----6------77-----5---------------5-7b-7b--7-7-7----
D|-----------------------5h7-7---------------------------------7---5h7-
A|---------------------------------------------------------------------
E|---------------------------------------------------------------------
Play {} x4
E|-------------------{-5--------5-8-6-}-5-----------5h8p6-5------------
B|-------------------{--6-----56-----8}--6-----5-8-6-------------------
G|-57-------5-7b-5h7-{---76-65--------}---76-65------------------------
D|-------578---------{-----7----------}-----7--------------------------
A|----578------------{----------------}--------------------------------
E|-------------------{----------------}--------------------------------
then you play the {} again x1
Then the first {} again

Then play this opposite the other guitar for the ending
E|------------------------------------5--------------------------------
B|--------------------------6-6-6-5-5-6--------------------------------
G|---------------------------------------------------------------------
D|--8-8-----8p7-5h7----8-8---------------------------------------------
A|---------------------------------------------------------------------
E|---------------------------------------------------------------------


Second guitar:
D Bb C till 0:52

Then just D (listen to cd for rhythm
Before verse:
D A C A*

Verse:
A* G A D C

Before verse part
Verse

Chorus:
D A C A* G A

Verse
Chorus- end on D

Bridge (or whatever you want to call it)
D Bb C Bb

Chorus

Ending:
D A A*---- C A* A---- D A A*---- A* A D

Chords: (all power chords)
D-x577xx
Bb-x133xx
C-x355xx
A-577xxx
A*-688xx
G-355xxx

Comments about this tab

No comments/corrections found. Add your own

Complimentary Christian Ringtones
Dadamobile and CGR have teamed up to bring your favorite Christian artists right to your phone. Sign up today and get 10 complementary ringtones!
Tab Country
Did you know CGR has a sister site w/ country guitar tabs? Well we do! Its called Tab Country. It has a great archive with a lot of country tabs.
Rockin Tabs
Are you looking for a site that has rock guitar tabs? Then Rockintabs.com is the place for you. It is a budding site with many rock guitar tabs. Submit your tab today.
Tab Gallery
Tab Gallery has a compilation of christian, rock, and country tabs all in one place. Come visit us.