Guitar Tabs
song title    band name

Join Us Today!

Don't strum alone...
be a part of the largest online Christian music community. Browse thousands of guitar tabs and chat w/ musicians like yourself.


It's Free!

Luna Halo - Superman

This tab has not yet been rated for accuracy.Sorry, but you must be logged in to rate this tab.
Click here to log-in, or you can click here to register.
(Registration is free)

All songs owned by corresponding publishing company. If you make copies of any song on this website, be sure to report your usage to CCLI.
“Superman”
Luna Halo
Shimmer
Words & Music by Nathan Barlowe and Jonathan McIntosh
c2000 Ariose Music (admin.by EMI)

This is the first single from Luna Halo’s debut album “Shimmer”. There’s
a lot of stuff going on in the song but I didn’t bother with most of it;
it’s pretty random and not very hard.  

[Intro]
D	D/C#	D/A	G
(repeat 4x)

[Clean Electric Break after Intro]
|-----------------|-----------------|
|-------3---------|-------3---------|
|-----------------|-----------------|
|---4-5---5-4-5-4-|---4-5---5-4-5-4-|
|-5---------------|-5---------------|
|-----------------|-----------------|
  1 & 2 & 3 & 4 &   1 & 2 & 3 & 4 &
(This riff is played lightly in the background during the first verse)

[Verse]
(D  G) x3
 D/F#  Em7  G

[Transition]
Intro chords 2x

[Verse]

[Chorus]
F#   G  D  E
F#m  G  D  E
F#m  G  D  E
Bb  C  G
Bb  C  D


[Verse]

[Chorus]

[Solo]
|---------------------------------|-----------------------------------|
|---------------------------------|-----------------------------------|
|---------------------------------|--------------/6---6---6--/5---5---|
|-3---3---3--/5---5---5---5---5---|--/4---4---4--/6---6---6--/5---5---|
|-3---3---3--/5---5---5---5---5---|--/4---4---4--/4---4---4--/3---3---|
|-1---1---1--/3---3---3---3---3---|--/2---2---2-----------------------|
  1   &   2   &   3   &   4   &       1   &   2   &   3   &   4   &
  F	       G				  F#          C#	  C

|---------------------------------|-----------------------------------|
|---------------------------------|-----------------------------------|
|---------------------------------|--------------/6---6---6--/5---5---|
|-----3---3--/5---5---5---5---5---|--/4---4---4--/6---6---6--/5---5---|
|-----3---3--/5---5---5---5---5---|--/4---4---4--/4---4---4--/3---3---|
|-----1---1--/3---3---3---3---3---|--/2---2---2-----------------------|
  1   &   2   &   3   &   4   &       1   &   2   &   3   &   4   &
	F	  G				  F#	     C#		  C

|---------------------------------|----------------------------------|
|---------------------------------|----------------------------------|
|---------------------------------|--------------/6---6---6--/5---5--|
|--3---3---3--/5---5---5---5---5--|--/4---4---4--/6---6---6--/5---5--|
|--3---3---3--/5---5---5---5---5--|--/4---4---4--/4---4---4--/3---3--|
|--1---1---1--/3---3---3---3---3--|--/2---2---2----------------------|
   1   &   2   &   3   &   4   &      1   &   2   &   3   &   4   &
   F		   G				  F# 	     C#		  C

|---------------------------------|-----------------------------------|
|---------------------------------|-----------------------------------|
|-3---3---3---3---3---3---3---3---|--/5---5---5---5---5---5---5---5---|
|-3---3---3---3---3---3---3---3---|--/5---5---5---5---5---5---5---5---|
|-1---1---1---1---1---1---1---1---|--/3---3---3---3---3---3---3---3---|
|---------------------------------|-----------------------------------|
  1   &   2   &   3   &   4   &	  1   &   2   &   3   &   4   &
  Bb						  C
 
[Guitar Chords]
D	xx0232
D/C#	x40232 (can play as normal D)
D/A	x00232 (can play as normal D)
G	320033
D/F#	200232
Em7	022033
F#	244322
E	022100
F#m	244222
Bb	x13331
C	x32010 (or x35553)

There ya go. Questions/comments--> JCBoyz@aol.com (David Schroder)

Comments about this tab

No comments/corrections found. Add your own

Complimentary Christian Ringtones
Dadamobile and CGR have teamed up to bring your favorite Christian artists right to your phone. Sign up today and get 10 complementary ringtones!
Tab Country
Did you know CGR has a sister site w/ country guitar tabs? Well we do! Its called Tab Country. It has a great archive with a lot of country tabs.
Rockin Tabs
Are you looking for a site that has rock guitar tabs? Then Rockintabs.com is the place for you. It is a budding site with many rock guitar tabs. Submit your tab today.
Tab Gallery
Tab Gallery has a compilation of christian, rock, and country tabs all in one place. Come visit us.