Guitar Tabs
song title    band name

Join Us Today!

Don't strum alone...
be a part of the largest online Christian music community. Browse thousands of guitar tabs and chat w/ musicians like yourself.


It's Free!

Luna Halo - Complacent

This tab has not yet been rated for accuracy.Sorry, but you must be logged in to rate this tab.
Click here to log-in, or you can click here to register.
(Registration is free)

All songs owned by corresponding publishing company. If you make copies of any song on this website, be sure to report your usage to CCLI.
Artist: Luna Halo
Song: Complacent
Album: Shimmer

Nice song here, melikes it. any corrections, send 'em to czkid7@cs.com

Intro:
e-------------------------------------------------11-----------------
b----------13----------------------------13--------------------------
g-13-12-10----13-10----------10-13-12-10----13-10----13-10-----------
d-------------------------10-----------------------------------------
a-------------------11h13--------------------------------------------
E--------------------------------------------------------------------

e-------------------------11-----------------------------------------
b--------------------------------------------------------------------
g----------10-13-12-10-------13-10-13-12-10----------10--------------
d-------10-------------10-------------------------10-----------------
a-11h13-------------------------------------11h13--------------------
E--------------------------------------------------------------------

drums come in somewhere around here, and ya repeat this a bunch of
times till the vocals come in:

e-------------11-----------------------------------------------------
b--------------------------------------------------------------------
g-13-12-10-------13-10-13-12-10----------10--------------------------
d----------10-------------------------10-----------------------------
a-------------------------------11h13--------------------------------
E--------------------------------------------------------------------

verse riff: this is just switching between Fm and Fm2 for all you who
care. play riff one mosta the time. riff 2 comes in like once I think
and riff 3 is more like a second guitar.

e--------------8--------------------------------------8~~~-9~~~------
b-------9--8----------------------9--8-------------------------------
g----10------------------------10------------------------------------
d-10------------------------10---------------------------------------
a--------------------------------------------------------------------
E-riff1---------------------riff2---------------------riff3----------

chorus:
e--------------------------------------------------------------------
b--------------------------------------------------------------------
g--------------------------------------------------------------------
d-6-5-3---8-6-5---3-5-6-8-6-3-5-6------------------------------------
a-6-5-3---8-6-5---3-5-6-8-6-3-5-6------------------------------------
E-4-3-1---6-4-3---1-3-4-6-4-1-3-4------------------------------------

solo:
e--------------------------------------------------------------------
b-13----13----16----18-----------------------------------------------
g-16b17-16b17-19b20-21b22--------------------------------------------
d--------------------------------------------------------------------
a--------------------------------------------------------------------
E--------------------------------------------------------------------

part 2:
e--------------------------------------------------------------------
b--------------------------------------------------------------------
g-10------13------14------17------18---------------------------------
d-----------------------------------------15-13----------------------
a-----------------------------------------------16-15-13-------------
E--------------------------------------------------------------------

Comments about this tab

No comments/corrections found. Add your own

Complimentary Christian Ringtones
Dadamobile and CGR have teamed up to bring your favorite Christian artists right to your phone. Sign up today and get 10 complementary ringtones!
Tab Country
Did you know CGR has a sister site w/ country guitar tabs? Well we do! Its called Tab Country. It has a great archive with a lot of country tabs.
Rockin Tabs
Are you looking for a site that has rock guitar tabs? Then Rockintabs.com is the place for you. It is a budding site with many rock guitar tabs. Submit your tab today.
Tab Gallery
Tab Gallery has a compilation of christian, rock, and country tabs all in one place. Come visit us.