Guitar Tabs
song title    band name

Join Us Today!

Don't strum alone...
be a part of the largest online Christian music community. Browse thousands of guitar tabs and chat w/ musicians like yourself.


It's Free!

Barnard, Shane - Received

This tab has not yet been rated for accuracy.Sorry, but you must be logged in to rate this tab.
Click here to log-in, or you can click here to register.
(Registration is free)

All songs owned by corresponding publishing company. If you make copies of any song on this website, be sure to report your usage to CCLI.
“Recieved”
by Shane Barnard
from “Rock’s Won’t Cry”
copyright 1998
www.shanebarnard.com
Stew (jesuslovesme@altavista.net) 

capo 0n 2
partial capo on 4 covering only A,D,G strings

chords			chorus
E    0 0 0 2 0 0	E2   0 0 7 7 0 5
A    3 2 0 0 0 0	B    0 0 2 2 0 5
B    0 0 2 2 0 0	A    0 5 5 4 0 0
prechorus
Bsus5  0 0 7 6 5 0
Asus5  0 0 5 4 3 0
Gsus5  0 0 3 2 1 0
all tab relative
intro: |E    |B    |A    |E  B|
verse:
You can only go so far, until the bottom falls out
All my singing, smiling, pleasure finds me all right
Pretty melody, dedicated to God,
To be called by One Almighty God and take it for granted
Heard a rumor I guess, but I wanna know who told me so
Told me serving You replaced me knowing You
prechorus:guitar only
Chorus:
Can I be recieved? Unclean oh Lord am I, Find me in my shame
You are all I need, please don’t pass me by, I call upon Your name
verse2:
You whispered to Your child today
But I haven’t got a minute to listen
Your child is busy with the work of God and taking Him for granted
Got a lot to do today, kingdom work’s the game I play,
Lord my serving You replaced me knowing You
prechorus:guitar only
Chorus2:
Can I be recieved? Unclean oh Lord am I, Find me in my shame
You are all I need, please don’t pass me by, I call upon your name
Thank You Lord

verse: strum these notes
e-0-3-3-2-0---3-3-2-0--------H3----H3----------
B----------------------------H3----H3----------
G-2-2-2-2-2-2-2-2-2-2-------2H3-2 2H3--2-------
D-----------2-2-2-2-2--------H3----H3--2-------
A---------------------2-2-2--H3----H3----------
E---------------------3-3-3--H3----H3---5-3-2-0

after the first verse slide up from B-C#-E2-H7

prechorus:
B--5----3----1-------5-3-5-------------
G--6----4----2-------------------------
D--7----5----3-------------------------
A----------------2-2-2-2-2-------------
E----------------3-3-3-3-3-------------


chorus:
e--5-0-5-0---5-5---------------|----------H7--s
B------------------------------|----------H7--t
G--7-7-7-7---2-2-------2-2--6-6|-2-2/-4/7-H7--r
D--7-7-7-7---2-2------------7-7|-2-2/-4/7-H7--u
A-----------------2-2-------7-7|----------H7--m
E-----------------3-3----------|----------H7---

after the second chorus play the part after the bar
last measure of song play B, A, G, like this

G-6--4--2----
D-7--5--3--2-
A-7--5--3----
E-5--3--1----

thats all there is to it. Basically its all chords and the use of
harmonics on the 3rd and 7th fret. all of the tab is to be strummed
because it is an open tuning.  Any questions, comments, email me
Jesuslovesme@altavista.net

Comments about this tab

No comments/corrections found. Add your own

Complimentary Christian Ringtones
Dadamobile and CGR have teamed up to bring your favorite Christian artists right to your phone. Sign up today and get 10 complementary ringtones!
Tab Country
Did you know CGR has a sister site w/ country guitar tabs? Well we do! Its called Tab Country. It has a great archive with a lot of country tabs.
Rockin Tabs
Are you looking for a site that has rock guitar tabs? Then Rockintabs.com is the place for you. It is a budding site with many rock guitar tabs. Submit your tab today.
Tab Gallery
Tab Gallery has a compilation of christian, rock, and country tabs all in one place. Come visit us.