Guitar Tabs
song title    band name

Join Us Today!

Don't strum alone...
be a part of the largest online Christian music community. Browse thousands of guitar tabs and chat w/ musicians like yourself.


It's Free!

Lewis, Crystal - People Get Ready

This tab has been rated a 5.00 out of 5 for accuracy. (2 votes)Sorry, but you must be logged in to rate this tab.
Click here to log-in, or you can click here to register.
(Registration is free)

All songs owned by corresponding publishing company. If you make copies of any song on this website, be sure to report your usage to CCLI.
People Get Ready
Crystal Lewis
CD: WOW 1998
Chords by Steve Cruickshank
postlambjam@hotmail.com


Verse:
A        C#m
Lord I’m ready now
Bm7                  E            A
I’m waiting for Your triumphant return
C#m            Bm7   E
You’re coming so soon
A              C#m
This world has nothing for me
Bm7                 E             A  C#m       Bm7  E
I find my peace and joy solely in You, only in You
A          C#m               Bm7              E              A C#m Bm7 E
I want the world to see that You’re alive and living well in me
A      C#m       Bm7            E                A
Let me be a part of the harvest for the days are few
C#m         Bm7  E
He’s coming soon


Chorus:
A                 F#m
People get ready, Jesus is coming
E                   D
Soon we’ll be going home
A                 F#m
People get ready, Jesus is coming
E                          D    D/C  D/B  D/C
To take from the world His own


Verse 2:
There will be a day when we will be divided right in left
For those who know Him
And those who do not know
Those who know Him well will meet Him in the air
Hallelujah
God is with us
Those who do not know
They will hear “Depart, I knew you not”
For my friends to see
There will be a day when we’ll be counted
So know Him well
Know Him well



Finger-picked acoustic part played after 2nd chorus and at the end
of the song: (Note: when it’s played at the outro, the bass plays only
D throughout it)
e--------2-----3p2-----2-------------2-----3p2-----2--------
B------3-----3-----3-----3---------3-----3-----3-----3------
G----5-----5---------5-----5-----5-----5---------5-----5----
D--0--------------------------------------------------------
A-----------------------------------------------------------
E-----------------------------------------------------------
---D                           D/C
e-------2-----3p2-----2-------------0-----2p0-----0---------
B-----3-----3-----3-----3---------3-----3-----3-----3-------
G---4-----4---------4-----4-----5-----5---------5-----5-----
D-----------------------------------------------------------
A-----------------------------------------------------------
E-----------------------------------------------------------
	D/B                         D/C

Comments about this tab

No comments/corrections found. Add your own

Complimentary Christian Ringtones
Dadamobile and CGR have teamed up to bring your favorite Christian artists right to your phone. Sign up today and get 10 complementary ringtones!
Tab Country
Did you know CGR has a sister site w/ country guitar tabs? Well we do! Its called Tab Country. It has a great archive with a lot of country tabs.
Rockin Tabs
Are you looking for a site that has rock guitar tabs? Then Rockintabs.com is the place for you. It is a budding site with many rock guitar tabs. Submit your tab today.
Tab Gallery
Tab Gallery has a compilation of christian, rock, and country tabs all in one place. Come visit us.