Guitar Tabs
song title    band name

Join Us Today!

Don't strum alone...
be a part of the largest online Christian music community. Browse thousands of guitar tabs and chat w/ musicians like yourself.


It's Free!

This tab has not yet been rated for accuracy.Sorry, but you must be logged in to rate this tab.
Click here to log-in, or you can click here to register.
(Registration is free)

All songs owned by corresponding publishing company. If you make copies of any song on this website, be sure to report your usage to CCLI.
If You Want to Lead Me to Jesus
Grover Levy
Album: Wrestling Angels
c1997 Winning Pitch Music
Steve Cruickshank
postlambjam@hotmail.com

Intro:
e---------------------------------------------------
B---------------------------------------------------
G---------------------------------------------------
D---0--2---3-2-0-2----3-2-0-2-----------------------
A-3----3-3-3-----3-3--3-----3-3-0-3/5-5-------------
E-------------------------------------3-------------
 C                         F         G


Second guitar comes in and plays this with the first guitar
e-------------------------------------------------
B-------------------------------------------------
G---5-5-5-5-5-5-5-5--10-10-10-10--12-12-12-12-----
D---5-5-5-5-5-5-5-5--10-10-10-10--12-12-12-12-----
A---3-3-3-3-3-3-3-3--8--8--8--8---10-10-10-10-----
E-------------------------------------------------
----C                F            G


C                                                  F
Your message is clear, you sound so sincere, your intentions are good
G                                              Am             G
The forgiveness of sin, life without end, I'd believe it if I could
C                                                        F
But I've watched from afar the way that you are with the people you're around
G                                                          Am            G
And I don't see a trace of the love and the grace that you talk so much about


Chorus:
C                                          F             G
If you want to lead me to Jesus you better find a better way
C                                                Fm     Bb       C
Cause your life is speaking so loud I can't even hear a word you say

Fm  Bb  C


If winning the duel is your golden rule no matter the cost
You may win the day, but the price you pay is the greater war that's lost
You would not believe how different it seems from the outside looking in
But the louder you shout, the more I tune out and the less I am convinced


Solo:
e-------------------------------------------------
B------8/-10\-----8/-10----8-6--------------------
G---5---------5---------5------5/7-7--------------
D------------------------------------------------- (x2)
A-------------------------------------------------
E-------------------------------------------------
----C                   F          G


Fm                     Bb                    Eb
I want to believe, but I'm gonna need you to work with me here
C#                 C                 G
Work with me here, work with me here

[Chorus]

Comments about this tab

No comments/corrections found. Add your own

Complimentary Christian Ringtones
Dadamobile and CGR have teamed up to bring your favorite Christian artists right to your phone. Sign up today and get 10 complementary ringtones!
Tab Country
Did you know CGR has a sister site w/ country guitar tabs? Well we do! Its called Tab Country. It has a great archive with a lot of country tabs.
Rockin Tabs
Are you looking for a site that has rock guitar tabs? Then Rockintabs.com is the place for you. It is a budding site with many rock guitar tabs. Submit your tab today.
Tab Gallery
Tab Gallery has a compilation of christian, rock, and country tabs all in one place. Come visit us.