Guitar Tabs
song title    band name

Join Us Today!

Don't strum alone...
be a part of the largest online Christian music community. Browse thousands of guitar tabs and chat w/ musicians like yourself.


It's Free!

This tab has not yet been rated for accuracy.Sorry, but you must be logged in to rate this tab.
Click here to log-in, or you can click here to register.
(Registration is free)

All songs owned by corresponding publishing company. If you make copies of any song on this website, be sure to report your usage to CCLI.
                               "LEAD ME BACK"
                                  by Legend
                          from the self-titled CD

                          transcribed by Mike Pilato
                          using the standard tuning
                          and typical compu-tabbing
                          conventions: /,\  =  slides
                                         #  =  harmonic
                                         ^  =  bend
                                         p  =  pulloff
                                         h  =  hammer on

|-3-------3--------|-3-------3--------|-3-------3--------|-3p2-----0--------|
|-3-------3--------|-3-------3--------|-3-------3--------|-3-------3--------|
|-----0-------0----|-----0-------0----|-----0-------0----|-----2-------0----|
|------------------|------------------|------------------|-0----------------|
|------------------|------------------|------------------|------------------|
|-3----------------|-2----------------|-0----------------|------------------|


|-0-------0--------|-0-------0--------|-0-----------0----|-3-------2--------|
|-3-------3--------|-3-------3--------|-1-------1--------|-3-------3--------|
|-----0-------0----|-----0-------0----|-----2------------|-----2------------|
|------------------|------------------|------------------|-0----------------|
|-3----------------|-2----------------|-0----------------|------------------|
|------------------|------------------|------------------|------------------|
                                                                   [pause...]
****VERSE 1****
|-3-------3--------|-3-------3--------|-3-------3--------|-3p2-----0--------|
|-3-------3--------|-3-------3--------|-3-------3--------|-3-------3--------|
|-----0-------0----|-----0-------0----|-----0-------0----|-----2-------0----|
|------------------|------------------|------------------|-0----------------|
|------------------|------------------|------------------|------------------|
|-3----------------|-2----------------|-0----------------|------------------|

|-0-------0--------|-0-------0--------|-0-----------0----|-3-------2--------|
|-3-------3--------|-3-------3--------|-1-------1--------|-3-------3--------|
|-----0-------0----|-----0-------0----|-----2------------|-----2------------|
|------------------|------------------|------------------|-0----------------|
|-3----------------|-2----------------|-0----------------|------------------|
|------------------|------------------|------------------|------------------|

|-3-------3--------|-3-------3--------|-3-------3--------|-3p2-----0--------|
|-3-------3--------|-3-------3--------|-3-------3--------|-3-------3--------|
|-----0-------0----|-----0-------0----|-----0-------0----|-----2-------0----|
|------------------|------------------|------------------|-0----------------|
|------------------|------------------|------------------|------------------|
|-3----------------|-2----------------|-0----------------|------------------|

|-0-------0--------|-0-------0--------|-3-------3--------|-2-------2--------|
|-3-------3--------|-3-------3--------|-3-------3--------|-3-------3--------|
|-----0-------0----|-----0-------0----|-----2-------2----|-----2------------|
|------------------|------------------|-0----------------|-0-----------0----|
|-3----------------|-2----------------|------------------|------------------|
|------------------|------------------|------------------|------------------|

****BRIDGE****
|-0-------0--------|-0-------0--------|-0-------0--------|-3-------2--------|
|-3-------3--------|-3-------3--------|-3-------3--------|-3-------3--------|
|-----0-------0----|-----0-------0----|-----0-------0----|-----2-------0----|
|------------------|------------------|------------------|-0----------------|
|-3----------------|-2----------------|-0----------------|------------------|
|------------------|------------------|------------------|------------------|

|-0-------0--------|-0-------0--------|-0-------0--------|-3-------2--------|
|-3-------3--------|-3-------3--------|-3-------3--------|-3-------3--------|
|-----0-------0----|-----0-------0----|-----0-------0----|-----2-------0----|
|------------------|------------------|------------------|-0----------------|
|-3----------------|-2----------------|-3----------------|------------------|
|------------------|------------------|------------------|------------------|



****CHORUS****
|-3-------3--------|-2-------0--------|-0-------0--------|-3-------3--------|
|-3-------3--------|-3-------3--------|-3-------3--------|-3-------3--------|
|-----0-------0----|-----2-------2----|-----0-------0----|-----0-------0----|
|------------------|-0----------------|------------------|------------------|
|------------------|------------------|-3----------------|------------------|
|-3----------------|------------------|------------------|-3----------------|

|-0-------0--------|-2-------2--------|-0-------0--------|-3-------2--------|
|-1-------1--------|-3-------3--------|-3-------3--------|-3-------3--------|
|-----2-------2----|-----4-------4----|-----0-------0----|-----2-------2----|
|------------------|------------------|------------------|-0----------------|
|-0----------------|-2----------------|-3----------------|------------------|
|------------------|------------------|------------------|------------------|

|-3-------3--------|-2-------0--------|-0-------0--------|-3-------3--------|
|-3-------3--------|-3-------3--------|-3-------3--------|-3-------3--------|
|-----0-------0----|-----2-------2----|-----0-------0----|-----0-------0----|
|------------------|-0----------------|------------------|------------------|
|------------------|------------------|-3----------------|------------------|
|-3----------------|------------------|------------------|-3----------------|

|-0-------0--------|-2-------2--------|-----0------------|------------------|
|-1-------1--------|-3-------3--------|-----3------------|------------------|
|-----2-------2----|-----4-------4----|-----0------------|------------------|
|------------------|------------------|------------------|------------------|
|-0----------------|-2----------------|-3----------------|------------------|
|------------------|------------------|------------------|------------------|

|-3-------3--------|-3-------3--------|-3-------3--------|-3p2-----0--------|
|-3-------3--------|-3-------3--------|-3-------3--------|-3-------3--------|
|-----0-------0----|-----0-------0----|-----0-------0----|-----2-------0----|
|------------------|------------------|------------------|-0----------------|
|------------------|------------------|------------------|------------------|
|-3----------------|-2----------------|-0----------------|------------------|

|-0-----------0----|-0-----------0----|-0-----------0----|-3-------2--------|
|-3-------3--------|-3-------3--------|-1-------1--------|-3-------3--------|
|-----0------------|-----0------------|-----2------------|-----2-------0----|
|------------------|------------------|------------------|-0----------------|
|-3----------------|-2----------------|-0----------------|------------------|
|------------------|------------------|------------------|------------------|


****VERSE 2****
|-3-------3--------|-3-------3--------|-3-------3--------|-3p2-----0--------|
|-3-------3--------|-3-------3--------|-3-------3--------|-3-------3--------|
|-----0-------0----|-----0-------0----|-----0-------0----|-----2-------0----|
|------------------|------------------|------------------|-0----------------|
|------------------|------------------|------------------|------------------|
|-3----------------|-2----------------|-0----------------|------------------|

|-0-------0--------|-0-------0--------|-0-----------0----|-3-------2--------|
|-3-------3--------|-3-------3--------|-1-------1--------|-3-------3--------|
|-----0-------0----|-----0-------0----|-----2------------|-----2------------|
|------------------|------------------|------------------|-0----------------|
|-3----------------|-2----------------|-0----------------|------------------|
|------------------|------------------|------------------|------------------|

|-3-------3--------|-3-------3--------|-3-------3--------|-3p2-----0--------|
|-3-------3--------|-3-------3--------|-3-------3--------|-3-------3--------|
|-----0-------0----|-----0-------0----|-----0-------0----|-----2-------0----|
|------------------|------------------|------------------|-0----------------|
|------------------|------------------|------------------|------------------|
|-3----------------|-2----------------|-0----------------|------------------|

|-0-------0--------|-0-------0--------|-3-------3--------|-2-----------0----|
|-3-------3--------|-3-------3--------|-3-------3--------|-3-----------3----|
|-----0-------0----|-----0-------0----|-----2-------2----|-----2------------|
|------------------|------------------|-0----------------|-0-------0--------|
|-3----------------|-2----------------|------------------|------------------|
|------------------|------------------|------------------|------------------|

****BRIDGE****
|-0-------0--------|-0-------0--------|-0-------0--------|-3-------2--------|
|-3-------3--------|-3-------3--------|-3-------3--------|-3-------3--------|
|-----0-------0----|-----0-------0----|-----0-------0----|-----2-------0----|
|------------------|------------------|------------------|-0----------------|
|-3----------------|-2----------------|-0----------------|------------------|
|------------------|------------------|------------------|------------------|

|-0-------0--------|-0-------0--------|-0-------0--------|-3-------2--------|
|-3-------3--------|-3-------3--------|-3-------3--------|-3-------3--------|
|-----0-------0----|-----0-------0----|-----0-------0----|-----2-------0----|
|------------------|------------------|------------------|-0----------------|
|-3----------------|-2----------------|-3----------------|------------------|
|------------------|------------------|------------------|------------------|


****CHORUS****
|-3-------3--------|-2-------0--------|-0-------0--------|-3-------3--------|
|-3-------3--------|-3-------3--------|-3-------3--------|-3-------3--------|
|-----0-------0----|-----2-------2----|-----0-------0----|-----0-------0----|
|------------------|-0----------------|------------------|------------------|
|------------------|------------------|-3----------------|------------------|
|-3----------------|------------------|------------------|-3----------------|

|-0-------0--------|-2-------2--------|-0-------0--------|-3-------2--------|
|-1-------1--------|-3-------3--------|-3-------3--------|-3-------3--------|
|-----2-------2----|-----4-------4----|-----0-------0----|-----2-------2----|
|------------------|------------------|------------------|-0----------------|
|-0----------------|-2----------------|-3----------------|------------------|
|------------------|------------------|------------------|------------------|

|-3-------3--------|-2-------0--------|-0-------0--------|-3-------3--------|
|-3-------3--------|-3-------3--------|-3-------3--------|-3-------3--------|
|-----0-------0----|-----2-------2----|-----0-------0----|-----0-------0----|
|------------------|-0----------------|------------------|------------------|
|------------------|------------------|-3----------------|------------------|
|-3----------------|------------------|------------------|-3----------------|

|-0-------0--------|-2-------2--------|-----0------------|------------------|
|-1-------1--------|-3-------3--------|-----3------------|------------------|
|-----2-------2----|-----4-------4----|-----0------------|------------------|
|------------------|------------------|------------------|------------------|
|-0----------------|-2----------------|-3----------------|------------------|
|------------------|------------------|------------------|------------------|



|-2-------2--------|-0-------0--------|-2-------2--------|-3-------3--------|
|-3-------3--------|-3-------3--------|-3-------3--------|-3-------3--------|
|-----4-------4----|-----0-------0----|-----2-------2----|-----0-------0----|
|------------------|------------------|-0----------------|------------------|
|-2----------------|-3----------------|------------------|------------------|
|------------------|------------------|------------------|-3----------------|

|-0-------0--------|-2-------2--------|-0-----------0----|-3-------2--------|
|-1-------1--------|-3-------3--------|-3-------3--------|-3-------3--------|
|-----2-------2----|-----4-------4----|-----0------------|-----2-------0----|
|------------------|------------------|------------------|-0----------------|
|-0----------------|-2----------------|-3----------------|------------------|
|------------------|------------------|------------------|------------------|
                                               
|-0-------0--------|-2-------2--------|-----0------------|-0-----0-----0----|
|-1-------1--------|-3-------3--------|-----3------------|-3-----3-----3----|
|-----2-------2----|-----4-------4----|-----0------------|------------------|
|------------------|------------------|------------------|------------------|
|-0----------------|-2----------------|-3----------------|-0-----2-----3----|
|------------------|------------------|------------------|------------------|


|-2-------2--------|-3-------3--------|-2-------2--------|-2----------------|
|-3-------3--------|-3-------3--------|-3-------3--------|-3----------------|
|-----2-------2----|-----2-------2----|-----2-------2----|------------------|
|-0----------------|-0----------------|-0----------------|-0----------------|
|------------------|------------------|------------------|------------------|
|------------------|------------------|------------------|------------------|



****CHORUS****
|-0-------0--------|-0-------0--------|-0-------0--------|-0-------0--------|
|-0-------0--------|-0-------0--------|-3-------3--------|-0h2-----0--------|
|-----2-------2----|-----1-------1----|-----2-------2----|-----2-------2----|
|------------------|------------------|-0----------------|------------------|
|-0----------------|------------------|------------------|-0----------------|
|------------------|-0----------------|------------------|------------------|

|-2-------2--------|-4-------4--------|-0-------0--------|-0-------0--------|
|-3-------3--------|-5-------5--------|-3-------3--------|-0-------0--------|
|-----4-------4----|-----6-------6----|-----2-------2----|-----1-------1----|
|------------------|------------------|-0----------------|------------------|
|-2----------------|-4----------------|------------------|------------------|
|------------------|------------------|------------------|-0----------------|

|-0-------0--------|-0-------0--------|-0-------0--------|-0-------0--------|
|-0-------0--------|-0-------0--------|-3-------3--------|-0h2-----0--------|
|-----2-------2----|-----1-------1----|-----2-------2----|-----2-------2----|
|------------------|------------------|-0----------------|------------------|
|-0----------------|------------------|------------------|-0----------------|
|------------------|-0----------------|------------------|------------------|

|-2-------2--------|-4-------4--------|-----0------------|------------------|
|-3-------3--------|-5-------5--------|-----3------------|------------------|
|-----4-------4----|-----6-------6----|-----2------------|------------------|
|------------------|------------------|-0----------------|------------------|
|-2----------------|-4----------------|------------------|------------------|
|------------------|------------------|------------------|------------------|

|-3-------3--------|-3-------3--------|-3-------3--------|-3p2-----0--------|
|-3-------3--------|-3-------3--------|-3-------3--------|-3-------3--------|
|-----0-------0----|-----0-------0----|-----0-------0----|-----2-------0----|
|------------------|------------------|------------------|-0----------------|
|------------------|------------------|------------------|------------------|
|-3----------------|-2----------------|-0----------------|------------------|

|-0-------0--------|-0-------0--------|-0-----------0----|-3-------2--------|
|-3-------3--------|-3-------3--------|-1-------1--------|-3-------3--------|
|-----0-------0----|-----0-------0----|-----2------------|-----2------------|
|------------------|------------------|------------------|-0----------------|
|-3----------------|-2----------------|-0----------------|------------------|
|------------------|------------------|------------------|------------------|


|-3-------3--------|-3-------3--------|-3-------3--------|-3p2-----0--------|
|-3-------3--------|-3-------3--------|-3-------3--------|-3-------3--------|
|-----0-------0----|-----0-------0----|-----0-------0----|-----2-------0----|
|------------------|------------------|------------------|-0----------------|
|------------------|------------------|------------------|------------------|
|-3----------------|-2----------------|-0----------------|------------------|

|-0-------0--------|-0-------0--------|-0-----------0----|-3-------2--------|
|-3-------3--------|-3-------3--------|-1-------1--------|-3-------3--------|
|-----0-------0----|-----0-------0----|-----2------------|-----2------------|
|------------------|------------------|------------------|-0----------------|
|-3----------------|-2----------------|-0----------------|------------------|
|------------------|------------------|------------------|------------------|

|------3-----------|------------------|------------------|------------------|
|-----3------------|------------------|------------------|------------------|
|----0-------------|------------------|------------------|------------------|
|---0--------------|------------------|------------------|------------------|
|--2---------------|------------------|------------------|------------------|
|-3----------------|------------------|------------------|------------------|

 
                  ----------==''''+=+=+=+=+=+=+=+=+=+=+=+=+=+=+=+=+
+=+=+=+=+=+=+=+=+=+=+=+=+=+          --------- Mike Pilato/Phobic =
= cmpilato@ccs.vnet.net --    O  O    +=+=+=+=+=+=+=+=+=+=+=+=+=+=+
+=+=+=+=+=+=+=+=+=+=+=+=+=+  .____.  ---------- cmpilato@uncc.edu =
= 137.records@yale.edu -------....+=+=+=+=+=+=+=+=+=+=+=+=+=+=+=+=+
+=+=+=+=+=+=+=+=+=+=+=+=+=+=+=+=+==------------ 

Comments about this tab

No comments/corrections found. Add your own

Complimentary Christian Ringtones
Dadamobile and CGR have teamed up to bring your favorite Christian artists right to your phone. Sign up today and get 10 complementary ringtones!
Tab Country
Did you know CGR has a sister site w/ country guitar tabs? Well we do! Its called Tab Country. It has a great archive with a lot of country tabs.
Rockin Tabs
Are you looking for a site that has rock guitar tabs? Then Rockintabs.com is the place for you. It is a budding site with many rock guitar tabs. Submit your tab today.
Tab Gallery
Tab Gallery has a compilation of christian, rock, and country tabs all in one place. Come visit us.