Guitar Tabs
song title    band name

Join Us Today!

Don't strum alone...
be a part of the largest online Christian music community. Browse thousands of guitar tabs and chat w/ musicians like yourself.


It's Free!

Blindside - Nothing But Skin

This tab has been rated a 5.00 out of 5 for accuracy. (2 votes)Sorry, but you must be logged in to rate this tab.
Click here to log-in, or you can click here to register.
(Registration is free)

All songs owned by corresponding publishing company. If you make copies of any song on this website, be sure to report your usage to CCLI.
artist:blindside
song:nothing but skin


this is a very easy song and it wasnn’t hard to figure out either

here is another one of those chords in case you don’t know how to do it

f# / f~ / a~
e--------------
b--------------
g--11---4----8-
d-------3----7-
a---9----------
e--------------
all of the power chords are put in caps

riff 1:
a~                          A
e-------------------------------------------------------------
b-------------------------------------------------------------
g---8-8--8-8-8--8-8-8--8-8-8--8-9-9--9-9-9--9-9-9--9-9-9--9---
d---7-7--7-7-7--7-7-7--7-7-7--7-7-7--7-7-7--7-7-7--7-7-7--7---
a-------------------------------------------------------------
e-------------------------------------------------------------

riff 2:   (clean)

e-------------------------
b-------------------------
g-------------------------
d-------------------------
a---7/8-7/8-7/8-7/8-7-7---
e-------------------------

riff 3:
f~          E(p.m.)
e----x-x-x-x----------
b----x-x-x-x----------
g---4x4x4x4x4---------
d---3x3x3x3x3---2-2---
a----x-x-x-x----2-2---
e----x-x-x-x----0-0---

riff 4:
F#
e-----------------------------------------------------------------------
b-----------------------------------------------------------------------
g-----------------------------------------------------------------------
d-----------------------------------------------------------------------
a---4-4--4-4-4--4-4-4--4-4-4--4-4-4--4-4-4--4-4-4--4-4-4--4-4-4--4-4-4--
e---2-2--2-2-2--2-2-2--2-2-2--2-2-2--2-2-2--2-2-2--2-2-2--2-2-2--2-2-2--
F#/G F#     G F#(p.m.)F                          F#...
e-----------------------------------------------------...
b-----------------------------------------------------...
g-----------------------------------------------------...
d-----------------------------------------------------...
a---4/5-4---4--5-4-4-4---3-3--3-3-3--3-3-3--3-3-3--3-4...
e---2/3-2---2--3-2-2-2---1-1--1-1-1--1-1-1--1-1-1--1-2...
^right there he does some kind of harmonics on the bottom strings

riff 5:
F#    f#
e--------------------
b--------------------
g---------11-11-11---
d--------------------
a---4-4-4--9--9--9---
e---2-2-2------------

riff 6:

e-------------------------------------------------------------
b-------------------------------------------------------------
g-------------------------------------------------------------
d-------------------------------------------------------------
a---3-3--3-3-3--3-3-3--3-3-3--3-3-3--3-3-3--3-3-3--3-3-3--3---
e---1-1--1-1-1--1-1-1--1-1-1--1-1-1--1-1-1--1-1-1--1-1-1--1---

order of song:

riff 1:10 x’s
riff 2:i dunno how many x’s
riff 4:4 x’s (play ther first part of this longer on the first and last 
times)
riff 2:lotta x’s
riff 3:4 x’s
riff 4:4 x’s
riff 5:4 x’s
riff 6:1 x’s
riff 2:lots more times
riff 3:4 x’s
riff 4:4 x’s
riff 5:4 x’s
riff 6:1 x’s
riff 5:4 x’s
riff 6:1 x’s



this song is so long.but it’s fun to play.if there are any problems email 
me at superdude218@aol.com.later.

Comments about this tab

No comments/corrections found. Add your own

Complimentary Christian Ringtones
Dadamobile and CGR have teamed up to bring your favorite Christian artists right to your phone. Sign up today and get 10 complementary ringtones!
Tab Country
Did you know CGR has a sister site w/ country guitar tabs? Well we do! Its called Tab Country. It has a great archive with a lot of country tabs.
Rockin Tabs
Are you looking for a site that has rock guitar tabs? Then Rockintabs.com is the place for you. It is a budding site with many rock guitar tabs. Submit your tab today.
Tab Gallery
Tab Gallery has a compilation of christian, rock, and country tabs all in one place. Come visit us.