Guitar Tabs
song title    band name

Join Us Today!

Don't strum alone...
be a part of the largest online Christian music community. Browse thousands of guitar tabs and chat w/ musicians like yourself.


It's Free!

This tab has not yet been rated for accuracy.Sorry, but you must be logged in to rate this tab.
Click here to log-in, or you can click here to register.
(Registration is free)

All songs owned by corresponding publishing company. If you make copies of any song on this website, be sure to report your usage to CCLI.
Submitted by: bro_in_christ

Title: Be My Escape
Artist: Relient K

EADGBE- Standard tuning

Intro:
Guitar 1
E|--9----9--|
B|--10---9--|
G|--11---11-| (8X; play fast and listen to song for timing)
D|--11---11-|
A|--9----9--|
E|--x----x--|

Guitar 2 comes in the 3rd time with this: (00:04)
E|--x--|
B|--x--|
G|--7--|
D|--7--|
A|--5--|
E|--x--|

...and the 5th time with this: (00:09)
E|--x--|
B|--x--|
G|--x--|
D|--4--|
A|--4--|
E|--2--|

...back on the 7th time with this again: (00:13)
E|--x--|
B|--x--|
G|--7--|
D|--7--|
A|--5--|
E|--x--|

After the 8th time, Guitar 1 plays this: (00:17)
E|--9----9----9----9--|
B|--10---10---9----9--|
G|--11---11---11---11-| (4X)
D|--11---11---11---11-| (Play slower; again, listen for timing)
A|--9----9----9----9--|
E|--x----x----x----x--|

Verse 1:

Piano plays for a while (00:25)

(00:34)
E|--x--x--x------x---x--x-x-x-|
B|--x--x--x------x---x--x-x-x-|
G|--x--x--7------11--9--x-6-7-|
D|--7--9--7------11--9--9-6-7-|
A|--7--9--5------9---7--9-4-5-|
E|--5--7--x------x---x--7-x-x-|

Pre-Chorus: (00:42)
E|--x---x---x---x--|
B|--x---x---x---x--|
G|--11--7---x---9--| (3X)
D|--11--7---7---9--|
A|--9---5---5---7--|
E|--x---x---5---x--|
                                        (rake)
E|--x-x-x-x-x-x-x-x-x-x-x-x-x-x-x-x--||-x-x-x-x-|
B|--x-x-x-x-x-x-x-x-x-x-x-x-x-x-x-x--||-x-x-x-x-|
G|--x-x-x-x-x-x-x-x-7-7-7-7-9-9-9-9--||-x-x-x-x-|
D|--9-9-9-9-9-9-9-9-7-7-7-7-9-9-9-9--||-x-x-x-x-|
A|--9-9-9-9-9-9-9-9-5-5-5-5-7-7-7-7--||-x-x-x-x-|
E|--7-7-7-7-7-7-7-7-x-x-x-x-x-x-x-x--||-x-x-x-x-|

Chorus: (01:00)                                        (rake)
E|--x--x--x--x--x--x--x--x--x--x---x--x--x--x--x-x--||-x-x-x-x-|
B|--x--x--x--x--x--x--x--x--x--x---x--x--x--x--x-x--||-x-x-x-x-|
G|--x--x--9--9--7--7--9--9--14-14--9--9--7--7--9-9--||-x-x-x-x-|
D|--7--7--9--9--7--7--9--9--14-14--9--9--7--7--9-9--||-x-x-x-x-|
A|--7--7--7--7--5--5--7--7--12-12--7--7--5--5--7-7--||-x-x-x-x-|
E|--5--5--x--x--x--x--x--x--x--x---x--x--x--x--x-x--||-x-x-x-x-|

E|--x--x--x--x--x--x--x--x--||--x---x--x--x--|
B|--x--x--x--x--x--x--x--x--||--x---x--x--x--|
G|--x--x--9--9--7--7--9--9--||--11--9--7--9--|
D|--7--7--9--9--7--7--9--9--||--11--9--7--9--|
A|--7--7--7--7--5--5--7--7--||--9---7--5--7--|
E|--5--5--x--x--x--x--x--x--||--x---x--x--x--|

Verse 2: (01:17)        
E|--x--x--x--|          E|-x---x--x-x-x-|     
B|--x--x--x--|          B|-x---x--x-x-x-|     
G|--x--x--7--| (4X)     G|-11--9--x-6-7-|
D|--7--7--7--|          D|-11--9--9-6-7-|
A|--7--7--5--|          A|-9---7--9-4-5-|    
E|--5--5--x--|          E|-x---x--7-x-x-|
P.M.*  *

Repeat Verse 2 (01:25)

Pre-Chorus (01:33)
This time through the Pre-Chorus, a guitar plays this in the background:

E|----------------------|
B|--10-9----------------|
G|-------9--6--9--4--6--| (Listen to know when to come in)
D|----------------------|
A|----------------------|
E|----------------------|

Chorus (01:51)

Bridge:
Guitar 1 (02:08)                         Guitar 2 (02:12)
E|--9----9--|                            E|--x--|
B|--10---9--|                            B|--x--|
G|--11---11-| (4X; just like the intro)  G|--x--|
D|--11---11-|                            D|--4--|
A|--9----9--|                            A|--4--|
E|--x----x--|                            E|--2--|

Bass plays for a while (02:16)

Come in with the same chords as the intro, just listen for the
strumming pattern (02:25)

Piano plays... (02:36)

(02:44)
E|--x---x--|
B|--x---x--|
G|--x---x--|
D|--11--7--|
A|--9---5--|
E|--x---x--|
                                        (rake)
E|--x-x-x-x-x-x-x-x-x-x-x-x-x-x-x-x--||-x-x-x-x-|
B|--x-x-x-x-x-x-x-x-x-x-x-x-x-x-x-x--||-x-x-x-x-|
G|--x-x-x-x-x-x-x-x-7-7-7-7-9-9-9-9--||-x-x-x-x-|
D|--9-9-9-9-9-9-9-9-7-7-7-7-9-9-9-9--||-x-x-x-x-|
A|--9-9-9-9-9-9-9-9-5-5-5-5-7-7-7-7--||-x-x-x-x-|
E|--7-7-7-7-7-7-7-7-x-x-x-x-x-x-x-x--||-x-x-x-x-|
P.M.* * * * * * * * * * * * * * * *

Chorus (2:53)

Piano and drums for the rest of the song (03:09-03:59)

I wanted to resubmit this because I would prefer not to include
my email address this time around. Please delete the previous tab.

Comments about this tab

No comments/corrections found. Add your own

Complimentary Christian Ringtones
Dadamobile and CGR have teamed up to bring your favorite Christian artists right to your phone. Sign up today and get 10 complementary ringtones!
Tab Country
Did you know CGR has a sister site w/ country guitar tabs? Well we do! Its called Tab Country. It has a great archive with a lot of country tabs.
Rockin Tabs
Are you looking for a site that has rock guitar tabs? Then Rockintabs.com is the place for you. It is a budding site with many rock guitar tabs. Submit your tab today.
Tab Gallery
Tab Gallery has a compilation of christian, rock, and country tabs all in one place. Come visit us.