Guitar Tabs
song title    band name

Join Us Today!

Don't strum alone...
be a part of the largest online Christian music community. Browse thousands of guitar tabs and chat w/ musicians like yourself.


It's Free!

Barnard, Shane - Glory

This tab has been rated a 2.50 out of 5 for accuracy. (2 votes)Sorry, but you must be logged in to rate this tab.
Click here to log-in, or you can click here to register.
(Registration is free)

All songs owned by corresponding publishing company. If you make copies of any song on this website, be sure to report your usage to CCLI.
#----------------------------------PLEASE NOTE--------------------------------#
#This file is the author’s own work and represents their interpretation of the#
#song. You may only use this file for private study, scholarship, or research.#
#-----------------------------------------------------------------------------#
#-- File created with Instab - http://www.pconline.com/~smcarey/instab.html --#
#-----------------------------------------------------------------------------#

Author/Artist: Shane Barnard
Title: Glory
Album: Rocks Won’t Cry
Transcribed by: Andrew Shepherd
Email: andrew06@integrity.com

Use a partial capo and these chords for this song.
D(E)   -   000200
Em(F#m)-   022000
G(A)   -   320000
A(B)   -   002200


The intro riff:
e-----0------0-------0-----0-------0-------0-----0-----0-----0-----------------
B-------0------0-------------0-------0-------------0-----0---------------------
G-6h7-----6h7----6h7---6h7-----6h7-----6h7---6\2-----2-----2-------------------
D------------------------------------------------------------------------------
A------------------------------------------------------------------------------
E------------------------------------------------------------------------------ 

e-----0-------0-------------5*-------------------------------------------------
B-------0-------0-----------5*-------------------------------------------------
G---------------------------5*-------------------------------------------------
D-4h5-----4h5-----4h5p4-----5*-------------------------------------------------
A-----------------------7-5-5*-------------------------------------------------
E---------------------------5*-------------------------------------------------

He actually plays more notes right here than what I put but thats all that I could
hear, plus it sounds good so I guess its fine. 

Verse Riff:
e-0-0-0-5-3-2-0-----0---------3*-------------0-------0-----0---0-0-0-0---------
B-0-0-0-0-0-0-0-------0------------------------0-------------0-0-0-0-0---------
G-2----------------------------------0---0h2-----0h2-----------0-----0---------
D-0-------------0h2-----2/4-0----------0-----------------------0-----0---------
A-0------------------------------0h2-------------------2/5-----5-----2---------
E-0------------------------------------------------------------0-----3---------

Play this scale when you go into the chorus:

e-----------------------0-------------------------------------------------------
B--------------------2--0-------------------------------------------------------
G--------------0-2-4----2-------------------------------------------------------
D--------0-2-4----------0-------------------------------------------------------
A--0-2-4----------------0-------------------------------------------------------
E-----------------------0-------------------------------------------------------

For the chorus just play D, Em, G, A and for the bridge just play Em, A, and thats
pretty much it!

Comments about this tab

No comments/corrections found. Add your own

Complimentary Christian Ringtones
Dadamobile and CGR have teamed up to bring your favorite Christian artists right to your phone. Sign up today and get 10 complementary ringtones!
Tab Country
Did you know CGR has a sister site w/ country guitar tabs? Well we do! Its called Tab Country. It has a great archive with a lot of country tabs.
Rockin Tabs
Are you looking for a site that has rock guitar tabs? Then Rockintabs.com is the place for you. It is a budding site with many rock guitar tabs. Submit your tab today.
Tab Gallery
Tab Gallery has a compilation of christian, rock, and country tabs all in one place. Come visit us.