Guitar Tabs
song title    band name

Join Us Today!

Don't strum alone...
be a part of the largest online Christian music community. Browse thousands of guitar tabs and chat w/ musicians like yourself.


It's Free!

This tab has not yet been rated for accuracy.Sorry, but you must be logged in to rate this tab.
Click here to log-in, or you can click here to register.
(Registration is free)

All songs owned by corresponding publishing company. If you make copies of any song on this website, be sure to report your usage to CCLI.
Submitted by: DalePoston

Artist: Jeremy Camp
Song: Right Here
CD: Live
"Lead Break" Tab:
tabbed by: DalePoston

If you like electric guitar the Live version is soo much sweeter!
I think this whole lead break is around 20-30 seconds
Tuned 1/2 step down, so the actual key is C flat "Live Version"


b = flat for open string key at left of string
b = bend one whole step when used in tab
    when b is in front of note, bend first
r = release bend back to normal note
s = slide(the note after the s is where the slide stops
h = hammer note
p = pull off to the next note

 (intro to lb)   *starts
Eb---------------------------------
Bb--------------------8------------
Gb--5-5-5-5-7b-*-5-7b---b7r-57-5-7-
Db---------------------------------
 
Eb---------------------------------
Bb--------8------------------------
Gb---5-7b---b7r-5--7-5-7-5---------
Db-------------------------7-------

Eb--------------------------------
Bb--------------------------------
Gb----------5-----------5----5----
Db--7-5-7--7-7--7-5-7--7-7--7-7---

Eb-----------5--------------------
Bb--5-5-5-8b--8-5--5-6p5----------
Gb-----------------------9s7-5---
Db--------------------------------

Eb--------------------------------
Bb------------5-6-8s/10--8--------
Gb--7-5-4-5-7---------------------
Db--------------------------------

Eb-------8-10b--b10-10-8-8-h10p8--
Bb--8-10--------------------------
Gb--------------------------------
Db--------------------------------

Eb-----8-----7h8p7----------------
Bb--10---10--------8--------------
Gb-------------------7-5--7-------
Db--------------------------------

Eb--------------------------------
Bb--------------------------------
Gb--9s7-5-7---4-5--*-s/7-s5-s4-
Db-----------7--------------------
                    * = no more picking

Comments about this tab

No comments/corrections found. Add your own

Complimentary Christian Ringtones
Dadamobile and CGR have teamed up to bring your favorite Christian artists right to your phone. Sign up today and get 10 complementary ringtones!
Tab Country
Did you know CGR has a sister site w/ country guitar tabs? Well we do! Its called Tab Country. It has a great archive with a lot of country tabs.
Rockin Tabs
Are you looking for a site that has rock guitar tabs? Then Rockintabs.com is the place for you. It is a budding site with many rock guitar tabs. Submit your tab today.
Tab Gallery
Tab Gallery has a compilation of christian, rock, and country tabs all in one place. Come visit us.