Guitar Tabs
song title    band name

Join Us Today!

Don't strum alone...
be a part of the largest online Christian music community. Browse thousands of guitar tabs and chat w/ musicians like yourself.


It's Free!

This tab has been rated a 4.50 out of 5 for accuracy. (2 votes)Sorry, but you must be logged in to rate this tab.
Click here to log-in, or you can click here to register.
(Registration is free)

All songs owned by corresponding publishing company. If you make copies of any song on this website, be sure to report your usage to CCLI.
Submitted by: Kyle92

Here is the full song

Song: live free or let me die
Artist: Skillet
Album: Comatose Delux Edition (also on Comatose Comes Alive)
Tuning: Drop B, low to high B,F#,B,E,G#,C#

Intro
|-------------------------------------------|
|-------------------------------------------|
|-------------------------------------------|
|-------------------------------------------|
|-----------------------------8-7-10-8------|
|--0-0-12-0-10-12-0-8-7-0-8-7---------------|

|-------------------------------------------|
|-------------------------------------------|
|-------------------------------------------|
|------------------------------3--3---------|
|------------------------------3--3---------|
|--0-0-12-0-10-12-0-8-7-0-8-7--3--3---------|

|-------------------------------------------------------------|
|-------------------------------------------------------------|
|-------------------------------------------------------------|
|---------------------------------------8-8-8-8--10-10-10-10--|
|-----------------------------8-7-10-8--8-8-8-8--10-10-10-10--|
|--0-0-12-0-10-12-0-8-7-0-8-7-----------8-8-8-8--10-10-10-10--|

Verse x2
|-------------------------------------------------------------|
|o-----------------------------------------------------------o|
|-------------------------------------------------------------|
|--------------------------------------8-8-8-8-10-10-10-10----|
|o-0-0-0-0---0-0-----0-0-0-0---0-0-----8-8-8-8-10-10-10-10---o|
|--0-0-0-0---0-0-----0-0-0-0---0-0-----8-8-8-8-10-10-10-10----|
PM . . . .   . .     . . . .   . . 

Pre-Chorus
|-------------------------------------------------------------|
|-------------------------------------------------------------|
|-------------------------------------------------------------|
|----------5---5-------5---------------3---3-------3----------|
|--5-5-5-5-5-5-5-5-5-5-5-5-5-5-3-3-3-3-3-3-3-3-3-3-3----------|
|--5-5-5-5-5-5-5-5-5-5-5-5-5-5-3-3-3-3-3-3-3-3-3-3-3----------|
PM . . . .   .   . . .   . . . . . . .   .   . . .

Chorus x2
|----------------------------------------|
|o---------------------------------2-----|
|----------------------------------2-----|
|--0-0-------5-x-3---0-0-------5---0-5---|
|o-0-0-3h5p3-5-x-3---0-0-3h5p3-5-----5---|
|--0-0-------5-x-3---0-0-------5-----5---|

|---------------------------------------------|
|--------------------------------------------o|
|---------------------------------------------|
|--0-0-------5-xx-3--8-8-8-8-10-10-10-10------|
|--0-0-3h5p3-5-xx-3--8-8-8-8-10-10-10-10-----o|
|--0-0-------5-xx-3--8-8-8-8-10-10-10-10------|

|-------------------------------------------|
|-------------------------------------------|
|-------------------------------------------|
|-------------------------------------------|
|-----------------------------8-7-10-8------|
|--0-0-12-0-10-12-0-8-7-0-8-7---------------|

|-------------------------------|
|-------------------------------|
|-------------------------------|
|-------------------------8s10--|
|-------------------------8s10--|
|--0-0-12-0-10-12-0-8-7-0-8s10--|

Verse x2
|-------------------------------------------------------------|
|o-----------------------------------------------------------o|
|-------------------------------------------------------------|
|--------------------------------------8-8-8-8-10-10-10-10----|
|o-0-0-0-0---0-0-----0-0-0-0---0-0-----8-8-8-8-10-10-10-10---o|
|--0-0-0-0---0-0-----0-0-0-0---0-0-----8-8-8-8-10-10-10-10----|
PM . . . .   . .     . . . .   . . 

Pre-Chorus
|-------------------------------------------------------------|
|-------------------------------------------------------------|
|-------------------------------------------------------------|
|----------5---5-------5---------------3---3-------3----------|
|--5-5-5-5-5-5-5-5-5-5-5-5-5-5-3-3-3-3-3-3-3-3-3-3-3----------|
|--5-5-5-5-5-5-5-5-5-5-5-5-5-5-3-3-3-3-3-3-3-3-3-3-3----------|
PM . . . .   .   . . .   . . . . . . .   .   . . .

Chorus x2
|----------------------------------------|
|o---------------------------------2-----|
|----------------------------------2-----|
|--0-0-------5-x-3---0-0-------5---0-5---|
|o-0-0-3h5p3-5-x-3---0-0-3h5p3-5-----5---|
|--0-0-------5-x-3---0-0-------5-----5---|

|---------------------------------------------|
|--------------------------------------------o|
|---------------------------------------------|
|--0-0-------5-xx-3--8-8-8-8-10-10-10-10------|
|--0-0-3h5p3-5-xx-3--8-8-8-8-10-10-10-10-----o|
|--0-0-------5-xx-3--8-8-8-8-10-10-10-10------|

Bridge part 1 x2
|------------------------------------------|
|o----------------------------------------o|
|------------------------------------------|
|--8-8-8---8-8-8---8-7---0-0-0--0-3-3-3-3--|
|o-8-8-8---8-8-8---8-7---0-0-0--0-3-3-3-3-o|
|--8-8-8---8-8-8---8-7---0-0-0--0-3-3-3-3--|

Bridge part 2
|------------------------------------------------|
|------------------------------------------------|
|------------------------------------------------|
|----------5---5-------5-------5-5-xxxx-5--------|
|--5-5-5-5-5-5-5-5-5-5-5-5-5-5-5-5-xxxx-5--------|
|--5-5-5-5-5-5-5-5-5-5-5-5-5-5-5-5-xxxx-5--------|
PM . . . .   .   . . .   . . .

Bridge part 3
|---------------------------------------------------------------|
|---------------------------------------------------------------|
|---------------------------------------------------------------|
|------------------------------------8--8--10--10---------------|
|------------------------------------8--8--10--10-xxxxxxxxxxxxx-|
|------------------------------------8--8--10--10-xxxxxxxxxxxxx-|
                                                  pick scrape/

Chorus x2
|----------------------------------------|
|o---------------------------------2-----|
|----------------------------------2-----|
|--0-0-------5-x-3---0-0-------5---0-5---|
|o-0-0-3h5p3-5-x-3---0-0-3h5p3-5-----5---|
|--0-0-------5-x-3---0-0-------5-----5---|

|---------------------------------------------|
|--------------------------------------------o|
|---------------------------------------------|
|--0-0-------5-xx-3--8-8-8-8-10-10-10-10------|
|--0-0-3h5p3-5-xx-3--8-8-8-8-10-10-10-10-----o|
|--0-0-------5-xx-3--8-8-8-8-10-10-10-10------|

on second time of this chorus play the ending like this x3
|-------------------------------------------|
|-------------------------------------------|
|-------------------------------------------|
|--8-----------10---------------------------|
|--8-8-8-8-8-8-10-10-10-10-10-10-10-10-10---|
|--8-8-8-8-8-8-10-10-10-10-10-10-10-10-10---|
PM   . . . . .    .  .  .  .  .  .  .  .

Outro
|-------------------------------------------|
|-------------------------------------------|
|-------------------------------------------|
|-------------------------------------------|
|-----------------------------8-7-10-8------|
|--0-0-12-0-10-12-0-8-7-0-8-7---------------|

|-----------------------------------|
|-----------------------------------|
|-----------------------------------|
|-------------------------8---------|
|-------------------------8---------|
|--0-0-12-0-10-12-0-8-7-0-8---------|

|-------------------------------------------------------------|
|-------------------------------------------------------------|
|-------------------------------------------------------------|
|---------------------------------------8-8-8-8--10-10-10-10--|
|-----------------------------8-7-10-8--8-8-8-8--10-10-10-10--|
|--0-0-12-0-10-12-0-8-7-0-8-7-----------8-8-8-8--10-10-10-10--|

|-------------------------------------------|
|-------------------------------------------|
|------------------------------5---5---5----|
|-------------------------------------------|
|-------------------------------------------|
|--0-0-12-0-10-12-0-8-7-0-8-7---------------|
Harmonics                      .   .   .

|-------------------------------------------|
|-------------------------------------------|
|-------------------------------------------|
|------------------------------3--3---------|
|------------------------------3--3---------|
|--0-0-12-0-10-12-0-8-7-0-8-7--3--3---------|
PM                             .  .

|---------------------------------------------------------------|
|---------------------------------------------------------------|
|---------------------------------------------------------------|
|---------------------------------------8-8-8-8--10-10-10-10--0-|
|-----------------------------8-7-10-8--8-8-8-8--10-10-10-10--0-|
|--0-0-12-0-10-12-0-8-7-0-8-7-----------8-8-8-8--10-10-10-10--0-|

I think this is correct please leave a comment if I did good

Thanks

Comments about this tab

kmiller - 2010-06-05

on the intro it should be
|----------------------------------------------x2
|----------------------------------------------
|----------------------------------------------
|----------------------------------------------
|------------------------------------8p7--10p7-
|---0-0--12--0-0-12h10--0--8p7--8p7------------


Kyle92 - 2010-06-07

Shoot I messed up on the pre chorus instead of 5s and 3s its 8s and 5s and as for the intro I double checked it in slow motion and it sounds more like my version (or I just have a really sucky ear for music haha)


Add a comment/correction

Complimentary Christian Ringtones
Dadamobile and CGR have teamed up to bring your favorite Christian artists right to your phone. Sign up today and get 10 complementary ringtones!
Tab Country
Did you know CGR has a sister site w/ country guitar tabs? Well we do! Its called Tab Country. It has a great archive with a lot of country tabs.
Rockin Tabs
Are you looking for a site that has rock guitar tabs? Then Rockintabs.com is the place for you. It is a budding site with many rock guitar tabs. Submit your tab today.
Tab Gallery
Tab Gallery has a compilation of christian, rock, and country tabs all in one place. Come visit us.