Guitar Tabs
song title    band name

Join Us Today!

Don't strum alone...
be a part of the largest online Christian music community. Browse thousands of guitar tabs and chat w/ musicians like yourself.


It's Free!

This tab has not yet been rated for accuracy.Sorry, but you must be logged in to rate this tab.
Click here to log-in, or you can click here to register.
(Registration is free)

All songs owned by corresponding publishing company. If you make copies of any song on this website, be sure to report your usage to CCLI.
Submitted by: AC2106

		Core Of My Addiction-Fireflight 

Album: For Those Who Wait 2010
Tabbed by:AC2106
Email:connora@email.sc.edu

Tuning:
Guitar 1:Drop C#
Guitar 2:Drop C#

*This is my first tab but I have been doing this awhile, not perfect at it though; 
 Any corrections let me know. 

(Intro)(Verse 1)
-Guitar 1-
D#|-------------------------------------------------------------------------
-|
A#|-------------------------------------------------------------------------
-|
F#|-------------------------------------------------------------------------
-|
C#|-------------------------------------------------------------------------
-|
G#|------7-7-7-7-7------3-3----------7-7-7-7-7-----3-3----------7-7-7-7-7---
-|
C#|7-7-7----------3-3-3----5-5-7-7-7----------3-3-3----5-5-7-7-7----------3-
3|
P.M..........................................................................
D#|-------------------------------------------------------------------------
-|
A#|-------------------------------------------------------------------------
-|
F#|-------------------------------------------------------------------------
-|
C#|-------------------------------------------------------------------------
-|
G#|--3-3-----------7-7-7-7-7-----3-3----------7-7-7-7-7---------------------
-|
C#|3-----5-5-7-7-7----------3-3-3----5-5-7-7-7----------3-3-3-5-5-5-5-5-----
-|
P.M....................................................................
  (Pre-Chorus)
-Guitars 1&2-    
D#|-------------------------------------------------------------------------
-|
A#|-------------------------------------------------------------------------
-|
F#|-------------5-5---------------------------------------------------------
-|
C#|-7-7---7-7---5-5---5-5-----------------7-7---7-7---3-3---3/5-------------
-|
G#|-7-7---7-7---3-3---5-5-----------------7-7---7-7---3-3---3/5-------------
-|
C#|-7-7---7-7---------5-5-----------------7-7---7-7---3-3---3/5-------------
-|

D#|-------------------------------------------------------------------------
-|
A#|-------------------------------------------------------------------------
-|
F#|-------------5-5---------------------------------------------------------
-|
C#|-7-7---7-7---5-5---5-5-----------------7-7---7-7---3-3---3/5-------------
-|
G#|-7-7---7-7---3-3---5-5-----------------7-7---7-7---3-3---3/5-------------
-|
C#|-7-7---7-7---------5-5-----------------7-7---7-7---3-3---3/5-------------
-|
                                                                    






 (Chorus)
 -Guitar 1- {x2}
D#|-------------------------------------------------------------------------
-|
A#|-------------------------------------------------------------------------
-|
F#|-----------------5-5-5-5-5-5-5-5-------------------------5-5-5-5---------
-|
C#|-7-7-7-7-7-7-7-7-5-5-5-5-5-5-5-5-5-5-5-5-5-5-5-5-5-5-5-5-5-5-5-5-3--3-3-3
-|
G#|-7-7-7-7-7-7-7-7-3-3-3-3-3-3-3-3-5-5-5-5-5-5-5-5-5-5-5-5-3-3-3-3-3--3-3-3
-|
C#|-7-7-7-7-7-7-7-7-----------------5-5-5-5-5-5-5-5-5-5-5-5---------3--3-3-3
-|

D#|-------------------------------------------------------------------------
-|
A#|-------------------------------------------------------------------------
-|
F#|--------5-5-5-5-5-5-5-5--------------------------------------------------
-|
C#|3-3-3-3-5-5-5-5-5-5-5-5--5-5-5---5---5-5-5-5---6-------------------------
-|
G#|3-3-3-3-3-3-3-3-3-3-3-3--5-5-5---5---5-5-5-5---6-------------------------
-|
C#|3-3-3-3------------------5-5-5---5---5-5-5-5---6-------------------------
-|
                                                   
  -Guitar 2- {x2}
D#|-------------------------------------------------------------------------
-|
A#|-------------------------------------------------------------------------
-|
F#|-----------------5-5-5-5-5-5-5-5-------------------------5-5-5-5---------
-|
C#|-7-7-7-7-7-7-7-7-5-5-5-5-5-5-5-5-5-5-5-5-5-5-5-5-5-5-5-5-5-5-5-5-3--3-3-3
-|
G#|-7-7-7-7-7-7-7-7-3-3-3-3-3-3-3-3-5-5-5-5-5-5-5-5-5-5-5-5-3-3-3-3-3--3-3-3
-|
C#|-7-7-7-7-7-7-7-7-----------------5-5-5-5-5-5-5-5-5-5-5-5---------3--3-3-3
-|

D#|-------------------------------------------------------------------------
-|
A#|-------------------------------------------------------------------------
-|
F#|--------5-5-5-5-5-5-5-5--14-12----------14---12--------------------------
-|
C#|3-3-3-3-5-5-5-5-5-5-5-5-------14-12-10----------14-12-10-----------------
-|
G#|3-3-3-3-3-3-3-3-3-3-3-3---------------12----------------11--12-----------
-|
C#|3-3-3-3------------------------------------------------------------------
-|

  (Verse 2) -Guitars 1&2-

  -Guitar 1-
D#|-------------------------------------------------------------------------
-|
A#|-------------------------------------------------------------------------
-|
F#|-------------------------------------------------------------------------
-|
C#|-------------------------------------------------------------------------
-|
G#|------7-7-7-7-7------3-3----------7-7-7-7-7-----3-3----------7-7-7-7-7---
-|
C#|7-7-7----------3-3-3----5-5-7-7-7----------3-3-3----5-5-7-7-7----------3-
3|
P.M..........................................................................
D#|-------------------------------------------------------------------------
-|
A#|-------------------------------------------------------------------------
-|
F#|-------------------------------------------------------------------------
-|
C#|-------------------------------------------------------------------------
-|
G#|--3-3-----------7-7-7-7-7-----3-3----------7-7-7-7-7---------------------
-|
C#|3-----5-5-7-7-7----------3-3-3----5-5-7-7-7----------3-3-3-5-5-5-5-5-----
-|
P.M....................................................................

  -Guitar 2-
D#|-------------------------------------------------------------------------
-|
A#|-------------------------------------------------------------------------
-|
F#|-------------------------------------------------------------------------
-|
C#|----------------------------7-7-------------------------7-7--------------
-|
G#|----------------------------7-7-------------------------7-7--------------
-|
C#|----------------------------7-7-------------------------7-7--------------
-|

D#|-------------------------------------------------------------------------
-|
A#|-------------------------------------------------------------------------
-|
F#|-------------------------------------------------------------------------
-|
C#|----------7-7-------------3-3--5--------7-7-----------3--3---5--5--------
-|
G#|----------7-7---7---------3-3--5-3-2----7-7---7-------3--3---5--5--------
-|
C#|----------7-7-------------3-3--5-----5--7-7-----------3--3---5--5--------
-|

(Pre-Chorus)
-Guitars 1&2-    
D#|-------------------------------------------------------------------------
-|
A#|-------------------------------------------------------------------------
-|
F#|-------------5-5---------------------------------------------------------
-|
C#|-7-7---7-7---5-5---5-5-----------------7-7---7-7---3-3---3/5-------------
-|
G#|-7-7---7-7---3-3---5-5-----------------7-7---7-7---3-3---3/5-------------
-|
C#|-7-7---7-7---------5-5-----------------7-7---7-7---3-3---3/5-------------
-|

D#|-------------------------------------------------------------------------
-|
A#|-------------------------------------------------------------------------
-|
F#|-------------5-5---------------------------------------------------------
-|
C#|-7-7---7-7---5-5---5-5-----------------7-7---7-7---3-3---3/5-------------
-|
G#|-7-7---7-7---3-3---5-5-----------------7-7---7-7---3-3---3/5-------------
-|
C#|-7-7---7-7---------5-5-----------------7-7---7-7---3-3---3/5-------------
-|
   Let it ring........................................................

(Chorus)
 -Guitar 1- {x2}
D#|-------------------------------------------------------------------------
-|
A#|-------------------------------------------------------------------------
-|
F#|-----------------5-5-5-5-5-5-5-5-------------------------5-5-5-5---------
-|
C#|-7-7-7-7-7-7-7-7-5-5-5-5-5-5-5-5-5-5-5-5-5-5-5-5-5-5-5-5-5-5-5-5-3--3-3-3
-|
G#|-7-7-7-7-7-7-7-7-3-3-3-3-3-3-3-3-5-5-5-5-5-5-5-5-5-5-5-5-3-3-3-3-3--3-3-3
-|
C#|-7-7-7-7-7-7-7-7-----------------5-5-5-5-5-5-5-5-5-5-5-5---------3--3-3-3
-|

D#|-------------------------------------------------------------------------
-|
A#|-------------------------------------------------------------------------
-|
F#|--------5-5-5-5-5-5-5-5--------------------------------------------------
-|
C#|3-3-3-3-5-5-5-5-5-5-5-5--5-5-5---5---5-5-5-5---6-------------------------
-|
G#|3-3-3-3-3-3-3-3-3-3-3-3--5-5-5---5---5-5-5-5---6-------------------------
-|
C#|3-3-3-3------------------5-5-5---5---5-5-5-5---6-------------------------
-|
                                                   


  -Guitar 2- {x2}
D#|-------------------------------------------------------------------------
-|
A#|-------------------------------------------------------------------------
-|
F#|-----------------5-5-5-5-5-5-5-5-------------------------5-5-5-5---------
-|
C#|-7-7-7-7-7-7-7-7-5-5-5-5-5-5-5-5-5-5-5-5-5-5-5-5-5-5-5-5-5-5-5-5-3--3-3-3
-|
G#|-7-7-7-7-7-7-7-7-3-3-3-3-3-3-3-3-5-5-5-5-5-5-5-5-5-5-5-5-3-3-3-3-3--3-3-3
-|
C#|-7-7-7-7-7-7-7-7-----------------5-5-5-5-5-5-5-5-5-5-5-5---------3--3-3-3
-|

D#|-------------------------------------------------------------------------
-|
A#|-------------------------------------------------------------------------
-|
F#|--------5-5-5-5-5-5-5-5--14-12----------14---12--------------------------
-|
C#|3-3-3-3-5-5-5-5-5-5-5-5-------14-12-10----------14-12-10-----------------
-|
G#|3-3-3-3-3-3-3-3-3-3-3-3---------------12----------------11---12----------
-|
C#|3-3-3-3------------------------------------------------------------------
-|

(Post-Chorus)
-Guitar 1-
D#|-------------------------------------------------------------------------
-|
A#|-------------------------------------------------------------------------
-|
F#|-------------------------------------------------------------------------
-|
C#|-7-7-7-7-7-7-7-7-7-7-7-7-7-7-7-7-3-3-3-3-3-3-3-3-3-3-3-3-3-3-3-3-5-5-5-5-
5|
G#|-7-7-7-7-7-7-7-7-7-7-7-7-7-7-7-7-3-3-3-3-3-3-3-3-3-3-3-3-3-3-3-3-5-5-5-5-
5|
C#|-7-7-7-7-7-7-7-7-7-7-7-7-7-7-7-7-3-3-3-3-3-3-3-3-3-3-3-3-3-3-3-3-5-5-5-5-
5|
P.M..........................................................................

D#|-------------------------------------------------------------------------
-|
A#|-------------------------------------------------------------------------
-|
F#|-------------------------------------------------------------------------
-|
C#|-5-5-5-5-5-5-5-5-5-5-5--5-5-5-5-5-5-5-5-5-5-5-5-5-5-5-5------------------
-|
G#|-5-5-5-5-5-5-5-5-5-5-5--5-5-5-5-5-5-5-5-5-5-5-5-5-5-5-5------------------
-|
C#|-5-5-5-5-5-5-5-5-5-5-5--5-5-5-5-5-5-5-5-5-5-5-5-5-5-5-5------------------
-|
   ......................
 
 -Guitar 2-
D#|-------------------------------------------------------------------------
-|
A#|-------------------------------------------------------------------------
-|
F#|--------------------------------------------------------------------7-9-7
-|
C#|-7-7-7-7-7-7-7-7-7-7-7-7-7-7-7-7-3-3-3-3-3-3-3-3-3-3-3-3-3-3-3-3--7------
-|
G#|-7-7-7-7-7-7-7-7-7-7-7-7-7-7-7-7-3-3-3-3-3-3-3-3-3-3-3-3-3-3-3-3---------
-|
C#|-7-7-7-7-7-7-7-7-7-7-7-7-7-7-7-7-3-3-3-3-3-3-3-3-3-3-3-3-3-3-3-3---------
-|
P.M..........................................................................


D#|-------------------------------------------------------------------------
-|
A#|-------------------------------------------------------------------------
-|
F#|--7-9-7---7-9-7---7-9-7-7-7-7-7------------------------------------------
-|
C#|7-------7-------7---------------5-5-5-5-5-5-5-5-5-5-5-5------------------
-|
G#|--------------------------------5-5-5-5-5-5-5-5-5-5-5-5------------------
-|
C#|--------------------------------5-5-5-5-5-5-5-5-5-5-5-5------------------
-|
  ........................
(Bridge)
-Guitars 1&2-
D#|-----------------------|
A#|-----------------------|
F#|-------------5-5-------|
C#|-7-7---7-7---5-5---5-5-|
G#|-7-7---7-7---3-3---5-5-|
C#|-7-7---7-7---------5-5-|


(Chorus)
 -Guitar 1- {x2}
D#|-------------------------------------------------------------------------
-|
A#|-------------------------------------------------------------------------
-|
F#|-----------------5-5-5-5-5-5-5-5-------------------------5-5-5-5---------
-|
C#|-7-7-7-7-7-7-7-7-5-5-5-5-5-5-5-5-5-5-5-5-5-5-5-5-5-5-5-5-5-5-5-5-3--3-3-3
-|
G#|-7-7-7-7-7-7-7-7-3-3-3-3-3-3-3-3-5-5-5-5-5-5-5-5-5-5-5-5-3-3-3-3-3--3-3-3
-|
C#|-7-7-7-7-7-7-7-7-----------------5-5-5-5-5-5-5-5-5-5-5-5---------3--3-3-3
-|

D#|-------------------------------------------------------------------------
-|
A#|-------------------------------------------------------------------------
-|
F#|--------5-5-5-5-5-5-5-5--------------------------------------------------
-|
C#|3-3-3-3-5-5-5-5-5-5-5-5--5-5-5---5---5-5-5-5---6-------------------------
-|
G#|3-3-3-3-3-3-3-3-3-3-3-3--5-5-5---5---5-5-5-5---6-------------------------
-|
C#|3-3-3-3------------------5-5-5---5---5-5-5-5---6-------------------------
-|
                                                   

  -Guitar 2- {x2}
D#|-------------------------------------------------------------------------
-|
A#|-------------------------------------------------------------------------
-|
F#|-----------------5-5-5-5-5-5-5-5-------------------------5-5-5-5---------
-|
C#|-7-7-7-7-7-7-7-7-5-5-5-5-5-5-5-5-5-5-5-5-5-5-5-5-5-5-5-5-5-5-5-5-3--3-3-3
-|
G#|-7-7-7-7-7-7-7-7-3-3-3-3-3-3-3-3-5-5-5-5-5-5-5-5-5-5-5-5-3-3-3-3-3--3-3-3
-|
C#|-7-7-7-7-7-7-7-7-----------------5-5-5-5-5-5-5-5-5-5-5-5---------3--3-3-3
-|

D#|-------------------------------------------------------------------------
-|
A#|-------------------------------------------------------------------------
-|
F#|--------5-5-5-5-5-5-5-5--14-12----------14---12--------------------------
-|
C#|3-3-3-3-5-5-5-5-5-5-5-5-------14-12-10----------14-12-10-----------------
-|
G#|3-3-3-3-3-3-3-3-3-3-3-3---------------12----------------11---12----------
-|
C#|3-3-3-3------------------------------------------------------------------
-|

(Outro)
-Guitar 1-
D#|-------------------------------------------------------------------------
-|
A#|-------------------------------------------------------------------------
-|
F#|-----------------5-5-5-5-5-5-5-5-----------------------------------------
-|
C#|-3-3-3-3-3-3-3-3-5-5-5-5-5-5-5-5-5-5-5-5-5-5-5-5-5-5-5-5-5-5-5-5-3-3-3-3-
3|
G#|-3-3-3-3-3-3-3-3-3-3-3-3-3-3-3-3-5-5-5-5-5-5-5-5-5-5-5-5-5-5-5-5-3-3-3-3-
3|
C#|-3-3-3-3-3-3-3-3-----------------5-5-5-5-5-5-5-5-5-5-5-5-5-5-5-5-3-3-3-3-
3|
D#|--------------------------------------------------------------------------
-|
A#|--------------------------------------------------------------------------
-|
F#|-------5-5-5-5-5-5-5-5----------------------------------------------------
-|
C#|-3-3-3-5-5-5-5-5-5-5-5-5-5-5-5-5-5-5-5-5-5-5-5-5-5-5-5-7-7-7---7---7-7-7-7
-|
G#|-3-3-3-3-3-3-3-3-3-3-3-5-5-5-5-5-5-5-5-5-5-5-5-5-5-5-5-7-7-7---7---7-7-7-7
-|
C#|-3-3-3-----------------5-5-5-5-5-5-5-5-5-5-5-5-5-5-5-5-7-7-7---7---7-7-7-7
-|

  -Guitar 2-
D#|-------------------------------------------------------------------------
-|
A#|-------------------------------------------------------------------------
-|
F#|-14-12------------14---12------------14-12------------14---12------------
-|
C#|------14-12-10-----------14-12-10----------14-12-10-----------14-12-10---
-|
G#|---------------12-----------------12----------------12-------------------
-|
C#|-------------------------------------------------------------------------
-|

D#|-------------------------------------------------------------------------
-|
A#|-------------------------------------------------------------------------
-|
F#|-14-12------------14---12------------14-12------------14---12------------
-|
C#|------14-12-10-----------14-12-10---------14-12-10-----------14-12-10----
-|
G#|---------------12-----------------12----------------------------------11-
-|
C#|-------------------------------------------------------------------------
-|

D#|---------------------|
A#|---------------------|
F#|---------------------|
C#|-7-7-7---7---7-7-7-7-|
G#|-7-7-7---7---7-7-7-7-|
C#|-7-7-7---7---7-7-7-7-|

***********************************
| /   slide up
|    slide down
| h   hammer-on
| p   pull-off
| ~   vibrato
| +   harmonic
| x   Mute note
| b   Bend
| pb  Pre-bend
| br  Bend release
| pbr Pre-bend release
| brb Bend release bend
| P.M... Palm mute
************************************

Comments about this tab

No comments/corrections found. Add your own

Complimentary Christian Ringtones
Dadamobile and CGR have teamed up to bring your favorite Christian artists right to your phone. Sign up today and get 10 complementary ringtones!
Tab Country
Did you know CGR has a sister site w/ country guitar tabs? Well we do! Its called Tab Country. It has a great archive with a lot of country tabs.
Rockin Tabs
Are you looking for a site that has rock guitar tabs? Then Rockintabs.com is the place for you. It is a budding site with many rock guitar tabs. Submit your tab today.
Tab Gallery
Tab Gallery has a compilation of christian, rock, and country tabs all in one place. Come visit us.