Guitar Tabs
song title    band name

Join Us Today!

Don't strum alone...
be a part of the largest online Christian music community. Browse thousands of guitar tabs and chat w/ musicians like yourself.


It's Free!

This tab has not yet been rated for accuracy.Sorry, but you must be logged in to rate this tab.
Click here to log-in, or you can click here to register.
(Registration is free)

All songs owned by corresponding publishing company. If you make copies of any song on this website, be sure to report your usage to CCLI.
Submitted by: Dabida

similar to http://www.christianguitar.org/csong10575/Jars-of-Clay-Worlds-Apart-
but more like how they play it live (from videos seen) i think..

Song: Worlds Apart
Written by: Jars of Clay
Tabbed by: David Saputra - bida_saputra@hotmail.com
Tabbed from "Worlds Apart" in the Album "Further More - From The Stage"
(cross checked with video from youtube of the 11th hour live tour)
Copyright 1995 BridgeBuilding Music (BMI)/
Pogostick Music (BMI). All rights reserved.


Non-Standard Tuning: E A B E B E
Start strumming from first Chorus
(bridge not done yet, but easy enough to work out by yourself
if you understand the previous parts)

INTRO:
=====
E|--0-----------------------0------------------------------0------------
B|--0---------0---------0-------0--------------0---------0--------------
E|--0-------0---------5---5---5-------0------0--(0)----0----------------
B|--2-----4---------2---------------2------4---------2------------------
A|--0---2-------------------------0-----/2------------------------------
E|----------------0--------------------------------2--------------------


VERSE 1:
=======
E|--0-----------------------0--------------------------------0----------
B|--0---------0---------0-------0--------------0---------0-------0------
E|--0-------0---------5---5---5-------0------0--(0)----0---0---0--------
B|--2-----4---------2---------------2------4---------2------------------
A|--0---2-------------------------0-----/2------------------------------
E|----------------0--------------------------------2--------------------


E|------------------------------0----------------------------------0----
B|----------------0---------0-------0--------------0---------0----------
E|------0-------0---------5---5---5-------0------0--(0)----0----4-------
B|----2-------4---------2---------------2------4---------2--------------
A|--0-------2-------------------------0-----/2--------------------------
E|--------------------0--------------------------------2----------------


E|--------2---0--(0)------2---0--(0)----------0---------------0---------
B|------0---0---0-------0---0---0---------4-------0-------4-------0-----
E|----4---------------2-----------------5---5---5-------5---5---5-------
B|------------------------------------5---------------5-----------------
A|--4---------------2---------------0---------------0-------------------
E|----------------------------------------------------------------------


E|--------2---0--(0)------2---0--(0)------4-----4-----------------------
B|------0---0---0-------0---0---0-------0-----0-----0-------------------
E|----4---------------2---------------5-----5-----5---------------------
B|----------------------------------------------------------------------
A|--4---------------2---------------0-----------------------------------
E|----------------------------------------------------------------------


VERSE 2:
=======
E|--0-----------------------0--------------------------------2p0--------
B|--0---------0---------0-------0--------------0---------0---------0----
E|--0-------0---------5---5---5-------0------0--(0)----0---------0------
B|--2-----4---------2---------------2------4---------2------------------
A|--0---2-------------------------0-----/2------------------------------
E|----------------0--------------------------------2--------------------


E|------------------------------0------------------------------------0--
B|----------------0---------0-------0--------------0---------0----------
E|------0-------0---------5---5---5-------0------0--(0)----0-----4------
B|----2-------4---------2---------------2------4---------2-----2---2----
A|--0-------2-------------------------0-----/2--------------------------
E|--------------------0--------------------------------2----------------


E|--------2---0--(0)------2---0--(0)----------0---------------0---------
B|------0---0---0-------0---0---0---------4-------0-------4-------0-----
E|----4---------------2-----------------5---5---5-------5---5---5-------
B|------------------------------------5---------------5-----------------
A|--4---------------2---------------0---------------0-------------------
E|----------------------------------------------------------------------


E|--------4---2--(0)------2---0--(0)------4-----4-----------------------
B|------0---0---0-------0---0---0-------0-----0-----0-------------------
E|----4---------------2---------------5-----5-----5---------------------
B|----------------------------------------------------------------------
A|--4---------------2---------------0-----------------------------------
E|----------------------------------------------------------------------


CHORUS:
======
C#m E5 A2 A2 C#m E5 A2 A2

E|--0-----0-----0---------0----------0-----0-----0---------0------------
B|--0-----0-----0---------0----------0-----0-----0---------0------------
E|--9-----12----0---------0----------9-----12----0---------0------------
B|--9-----12----10--9h10--10--9h10---9-----12----10--9h10--10--9h10-----
A|--x-----x-----0---------0----------x-----x-----0---------0------------
E|--9-----0--------------------------9-----0----------------------------


C#m B5 B4 A2 A2 (add M7 then back)

E|--0-----2--0---0--0-----0----0--0-------------------------------------
B|--0-----0--0---0--0-----0----9--0-------------------------------------
E|--9-----2--2---0--0-----0----0--0-------------------------------------
B|--9-----0--0---10-10----10---10-10------------------------------------
A|--x-----2--2---0--0-----0----0--0-------------------------------------
E|--9---------------9h11--11h12-----------------------------------------


VERSE 3:
=======
* : i do not know the chord name, just know how to press. :D

Aadd2 B5 E* Aadd2 B5 F#m*

E|--0-----2-----0--------0-----2-----0-------------------0--------------
B|--0-----0-----0--------0-----0-----0---2h4-5p4-2p0--------------------
E|--0-----2-----5--------0-----2-----0---------------2h4----------------
B|--2-----0-----2--------2-----0-----2----------------------------------
A|--0-----2-----4--------0-----2-----0----------------------------------
E|--------------0--------------------2----------------------------------


Aadd2 B5 E* Aadd2 B5 C#m3

E|--0-----2-----0--------0-----2-----0---0----2p0-----------------------
B|--0-----0-----0--------0-----0-----2---2p0--0-------------------------
E|--0-----2-----5--------0-----2-----0---0----0-------------------------
B|--2-----0-----2--------2-----0-----2---2----2-------------------------
A|--0-----2-----4--------0-----2-----4----------------------------------
E|--------------0-------------------------------------------------------


C#m* B5 A* Aadd2 B5 A*

E|--0--4/5-4---0--2--0---4--------0--4/5-4---0--2--0---4----------------
B|--0--0-------0--0--0---0--------0--0-------0--0--0---0----------------
E|--0--0-------2--2--2---5--------0--0-------2--2--2---5----------------
B|--2--2-------0--0--0---5--------2--2-------0--0--0---5----------------
A|-------------2--2--2---0--------4--4-------2--2--2---0----------------
E|----------------------------------------------------------------------


CHORUS:
======
C#m E5 A2 A2 C#m E5 A2 A2

E|--0-----0-----0---------0----------0-----0-----0---------0------------
B|--0-----0-----0---------0----------0-----0-----0---------0------------
E|--9-----12----0---------0----------9-----12----0---------0------------
B|--9-----12----10--9h10--10--9h10---9-----12----10--9h10--10--9h10-----
A|--x-----x-----0---------0----------x-----x-----0---------0------------
E|--9-----0--------------------------9-----0----------------------------


C#m B5 B4 A2 A2 (add M7 then back)

E|--0-----2--0---0--0-----0----0--0-------------------------------------
B|--0-----0--0---0--0-----0----9--0-------------------------------------
E|--9-----2--2---0--0-----0----0--0-------------------------------------
B|--9-----0--0---10-10----10---10-10------------------------------------
A|--x-----2--2---0--0-----0----0--0-------------------------------------
E|--9---------------9h11--11h12-----------------------------------------


C#m B5 B4 A2 A2 (add M7 then back)

E|--0-----2--0---0--0----0---0--0---------------------------------------
B|--0-----0--0---0--0----0---9--0---------------------------------------
E|--9-----2--2---0--0----0---0--0---------------------------------------
B|--9-----0--0---2--2/4--4/5-10-10--------------------------------------
A|--x-----2--2---0--0----0---0--0---------------------------------------
E|--9-------------------------------------------------------------------


BRIDGE:
======

Comments about this tab

No comments/corrections found. Add your own

Complimentary Christian Ringtones
Dadamobile and CGR have teamed up to bring your favorite Christian artists right to your phone. Sign up today and get 10 complementary ringtones!
Tab Country
Did you know CGR has a sister site w/ country guitar tabs? Well we do! Its called Tab Country. It has a great archive with a lot of country tabs.
Rockin Tabs
Are you looking for a site that has rock guitar tabs? Then Rockintabs.com is the place for you. It is a budding site with many rock guitar tabs. Submit your tab today.
Tab Gallery
Tab Gallery has a compilation of christian, rock, and country tabs all in one place. Come visit us.